PrimaNota.ru - самый крупный в мире бесплатный архив песенных текстов, аккордов, табулатур и нот


Misc Unsigned Bands - Gumi Megpoid - Mosaic Roll - таба

Регистрация Запомнить меня
Войти через:  Facebook Google Twitter Vk Yandex Mail.ru

Misc Unsigned Bands - Gumi Megpoid - Mosaic Roll - таба

Печатать
Просмотров: 144
Any comments or mistakes email me m4pleking@yahoo.com

0:00
guitar 1

E-----------------------------------------------------------------|
B-----------------------------------------------------------------|
G-----------------------------------------------------------------|
D-7--5h7p5h7-7-7--9h10p9--7p5-------------------------------------| x8
A-7--5h7p5h7-7-7--9h10p9--7p5-------------------------------------|
D-7--5h7p5h7-7-7--9h10p9--7p5-------------------------------------|

0:13
guitar 1

E------7-8-7-8-7-8-15-12-15-12-15-12-15-12-----------------------|
B-10-------------------------------------------------------------|
G----------------------------------------------------------------|
D----------------------------------------------------------------|
A----------------------------------------------------------------|
D----------------------------------------------------------------|

E----12/7-8-7-8-7-8-15-12-15-12-15-12-15-12----------------------|
B-10-------------------------------------------------------------|
G----------------------------------------------------------------|
D----------------------------------------------------------------| x3
A----------------------------------------------------------------|
D----------------------------------------------------------------|

guitar 2

E----------------------------------------------------------------|
B----------------------------------------------------------------|
G----------------------------------------------------------------|
D-7--7-7-x-10-10-10----5--5-5--3-3-3-----------------------------| x4
A-7--7-7-x-10-10-10----5--5-5--3-3-3-----------------------------|
D-7--7-7-x-10-10-10----5--5-5--3-3-3-----------------------------|

0:26
guitar 1

E----------------------------------------------------------------|
B----------------------------------------------------------------|
G----------------------------------------------------------------|
D-7--7-10-x-10-10-10----5--5-3--3-3-3----------------------------| x4
A-7--7-10-x-10-10-10----5--5-3--3-3-3----------------------------|
D-7--7-10-x-10-10-10----5--5-3--3-3-3----------------------------|

0:39
guitar 1

E------7-8-7-8-7-8-15-12-15-12-15-12-15-12-----------------------|
B-10-------------------------------------------------------------|
G----------------------------------------------------------------|
D----------------------------------------------------------------|
A----------------------------------------------------------------|
D----------------------------------------------------------------|

E----12/7-8-7-8-7-8-15-12-15-12-15-12-15-12----------------------|
B-10-------------------------------------------------------------|
G----------------------------------------------------------------|
D----------------------------------------------------------------| x3
A----------------------------------------------------------------|
D----------------------------------------------------------------|

guitar 2

E----------------------------------------------------------------|
B----------------------------------------------------------------|
G----------------------------------------------------------------|
D-7--7-7-x-10-10-10----5--5-5--3-3-3-----------------------------| x4
A-7--7-7-x-10-10-10----5--5-5--3-3-3-----------------------------|
D-7--7-7-x-10-10-10----5--5-5--3-3-3-----------------------------|

0:52
guitar 1

E------------------------------------------------------------------------|
B-13-12------------------------------------------------------------10-12-|
G-------12-14-12------------------------------------------------10-------|
D----------------14-12----12-10-----10-12-14-12-10-9-10-12-14------------| x2
A----------------------10--------10--------------------------------------|
D------------------------------------------------------------------------|

guitar 2

E----------------------------------------------------------------|
B----------------------------------------------------------------|
G----------------------------------------------------------------|
D-7--7-10-x-10-10-10----5--5-3--3-3-3----------------------------| x2
A-7--7-10-x-10-10-10----5--5-3--3-3-3----------------------------|
D-7--7-10-x-10-10-10----5--5-3--3-3-3----------------------------|

1:06
guitar 1

E----------------------------------------------------------------|
B-13------15------12---------------------------------------------|
G-----12------12------12-----------------------------------------|
D----------------------------------------------------------------|
A----------------------------------------------------------------|
D----------------------------------------------------------------|

1:10
guitar 1

E-13-13-13-13-13-13-13-13-------------10-10-10-10----------------|
B-11-11-11-11-10-10-10-10-13-13-13-13-11-11-11-11----------------|
G-------------------------10-10-10-10----------------------------|
D----------------------------------------------------------------| x3
A----------------------------------------------------------------|
D----------------------------------------------------------------|

E-13-13-13-13-13-13-13-13----------------------------------------|
B-11-11-11-11-10-10-10-10-13-13-13-13----------------------------|
G-------------------------10-10-10-10----------------------------|
D----------------------------------------------------------------|
A----------------------------------------------------------------|
D----------------------------------------------------------------|

guitar 2

E----------------------------------------------------------------|
B----------------------------------------------------------------|
G----------------------------------------------------------------|
D-5-5-5-5-3-3-3-3-1-1-1-1-8-8-8-8--------------------------------| x3
A-5-5-5-5-3-3-3-3-1-1-1-1-8-8-8-8--------------------------------|
D-5-5-5-5-3-3-3-3-1-1-1-1-8-8-8-8--------------------------------|

E----------------------------------------------------------------|
B----------------------------------------------------------------|
G----------------------------------------------------------------|
D-5-5-5-5-3-3-3-3-1-1-1-1----------------------------------------|
A-5-5-5-5-3-3-3-3-1-1-1-1----------------------------------------|
D-5-5-5-5-3-3-3-3-1-1-1-1----------------------------------------|

1:23
guitar 1

E------7-8-7-8-7-8-15-12-15-12-15-12-15-12-----------------------|
B-10-------------------------------------------------------------|
G----------------------------------------------------------------|
D----------------------------------------------------------------|
A----------------------------------------------------------------|
D----------------------------------------------------------------|

E----12/7-8-7-8-7-8-15-12-15-12-15-12-15-12----------------------|
B-10-------------------------------------------------------------|
G----------------------------------------------------------------|
D----------------------------------------------------------------| x3
A----------------------------------------------------------------|
D----------------------------------------------------------------|

guitar 2

E----------------------------------------------------------------|
B----------------------------------------------------------------|
G----------------------------------------------------------------|
D-7--7-7-x-10-10-10----5--5-5--3-3-3-----------------------------| x4
A-7--7-7-x-10-10-10----5--5-5--3-3-3-----------------------------|
D-7--7-7-x-10-10-10----5--5-5--3-3-3-----------------------------|

1:36
guitar 1

E----------------------------------------------------------------|
B----------------------------------------------------------------|
G----------------------------------------------------------------|
D-----7-----10---------5-----3-----------------------------------| x4
A-x-x---x-x--------x-x---x-x-------------------------------------|
D----------------------------------------------------------------|

1:49
guitar 1

E----------------------------------------------------------------|
B----------------------------------------------------------------|
G----------------------------------------------------------------|
D-7--7-10-x-10-10-10----5--5-3--3-3-3----------------------------| x4
A-7--7-10-x-10-10-10----5--5-3--3-3-3----------------------------|
D-7--7-10-x-10-10-10----5--5-3--3-3-3----------------------------|

guitar 2

E----------------------------------------------------------------|
B----------------------------------------------------------------|
G-10/14-14-14-14-14-14-14-14-12-12-12-12-10-10-10-10-10----------|
D--x/-x--x--x--x--x--x--x--x--x--x--x--x--x--x--x--x--x----------| x4
A--8/12-12-12-12-12-12-12-12-10-10-10-10--8--8--8--8--8----------|
D----------------------------------------------------------------|

2:02
guitar 1

E----------------------------------------------------------------|
B----------------------------------------------------------------|
G----------------------------------------------------------------|
D-3~~~~~---------------------------------------------------------|
A-3~~~~~---------------------------------------------------------|
D-3~~~~~---------------------------------------------------------|

2:06
guitar 1

E------------------------------------------------------------------------|
B-----------------------------------------------11----13----11----13-----|
G------------------------------------7-8-10--10----10----10----10----10--|
D-10h12-10h12-10-8----8-10-8-10-12---------------------------------------|
A------------------10----------------------------------------------------|
D------------------------------------------------------------------------|

E-10-------------------------------------------------------------|
B-------13----11----10-------------------------------------------|
G----10----10----10----------------------------------------------|
D----------------------------------------------------------------|
A----------------------------------------------------------------|
D----------------------------------------------------------------|

E-13-13-13-13-13-13-13-13-------------10-10-10-10----------------|
B-11-11-11-11-10-10-10-10-13-13-13-13-11-11-11-11----------------|
G-------------------------10-10-10-10----------------------------|
D----------------------------------------------------------------| x2
A----------------------------------------------------------------|
D----------------------------------------------------------------|

guitar 2

E----------------------------------------------------------------|
B----------------------------------------------------------------|
G----------------------------------------------------------------|
D-5-5-5-5-3-3-3-3-1-1-1-1-8-8-8-8--------------------------------| x4
A-5-5-5-5-3-3-3-3-1-1-1-1-8-8-8-8--------------------------------|
D-5-5-5-5-3-3-3-3-1-1-1-1-8-8-8-8--------------------------------|

2:32
guitar 1

E-14-14-14-14-14-14-14-14-------------11-11-11-11----------------|
B-12-12-12-12-11-11-11-11-14-14-14-14-12-12-12-12----------------|
G-------------------------11-11-11-11----------------------------|
D----------------------------------------------------------------| x4
A----------------------------------------------------------------|
D----------------------------------------------------------------|

guitar 2

E----------------------------------------------------------------|
B----------------------------------------------------------------|
G----------------------------------------------------------------|
D-6-6-6-6-4-4-4-4-2-2-2-2-9-9-9-9--------------------------------| x4
A-6-6-6-6-4-4-4-4-2-2-2-2-9-9-9-9--------------------------------|
D-6-6-6-6-4-4-4-4-2-2-2-2-9-9-9-9--------------------------------|

2:45
guitar 1

E------6-7-6-7-6-7-14-11-14-11-14-11-14-11-----------------------|
B-9--------------------------------------------------------------|
G----------------------------------------------------------------|
D----------------------------------------------------------------|
A----------------------------------------------------------------|
D----------------------------------------------------------------|

E---11/6-7-6-7-6-7-14-11-14-11-14-11-14-11-----------------------|
B-9--------------------------------------------------------------|
G----------------------------------------------------------------|
D----------------------------------------------------------------| x3
A----------------------------------------------------------------|
D----------------------------------------------------------------|

E---11/6-7-6-7-6-7-14-11-14-11-14-11-11-11-----------------------|
B-9--------------------------------------------------------------|
G----------------------------------------------------------------|
D----------------------------------------------------------------| x3
A----------------------------------------------------------------|
D----------------------------------------------------------------|

guitar 2

E----------------------------------------------------------------|
B----------------------------------------------------------------|
G----------------------------------------------------------------|
D-6-6-6-6-4-4-4-4-2-2-2-2-9-9-9-9--------------------------------| x4
A-6-6-6-6-4-4-4-4-2-2-2-2-9-9-9-9--------------------------------|
D-6-6-6-6-4-4-4-4-2-2-2-2-9-9-9-9--------------------------------|
Добавлено: 04.11.2013
Другие материалы по этой песне:
  • Аккорды и текст

Страница создана 04.11.2013
http://primanota.ru/misc-unsigned-bands/gumi-megpoid-mosaic-roll-chords.htm
Привет, Гость.
Предлагаем пройти революционный курс по гитаре.
Подарок от PrimaNota.Ru, забирай!