PrimaNota.ru - самый крупный в мире бесплатный архив песенных текстов, аккордов, табулатур и нот


Misc Unsigned Bands - Guilty Verdikt - Cardiac Torture Chamber - таба

Регистрация Запомнить меня
Войти через:  Facebook Google Twitter Vk Yandex Mail.ru

Misc Unsigned Bands - Guilty Verdikt - Cardiac Torture Chamber - таба

Печатать
Просмотров: 70
-------------------------------------------------------------------------------
                CARDIAC TORTURE CHAMBER - Guilty Verdikt
-------------------------------------------------------------------------------
Tabbed by: Lazar
Email: lazarblackfire@yahoo.com

Tuning: Dropped-D (half Step Down)



Intro
Eb|--------------------------------------------|
Bb|--------------------------------------------|
Gb|--------------------------------------------|
Db|--------------------------------------------|
Ab|--------------------------------------------|
Db|-0--0--0--0-0-0-0--0-0-0--0-0-0--0-0-0-12\0-|

Eb|----------------------------------------------------------|
Bb|----------------------------------------------------------|
Gb|----------------------------------------------------------|
Db|----------------------------------------------------------|
Ab|--------------3----------------------------3--------------|
Db|-0--0--0--0-0---0--0-0--1--3--0--0--0--0-0---0--0-0--1--1-|
                 +                            +

Eb|--------------------------------|  |-----------------------|
Bb|--------------------------------|  |-----------------------|
Gb|--------------------------------|  |-----------------------|
Db|--------------------------------|  |-2-3-2---2-3-2---2-3-2-|
Ab|--------------3-----------------|  |-2-3-2---2-3-2---2-3-2-|
Db|-0--0--0--0-0---0--0-0--1--3--0-|  |-2-3-2---2-3-2---2-3-2-|
                 +                            


Verse/main riff
Eb|-----------------------------------------------------------------|
Bb|-----------------------------------------------------------------|
Gb|-----------------------------------------------------------------|
Db|-0-----0-1-----1-3-------------3-0-----0-1-----1-5-------------5-|
Ab|-0-----0-1-----1-3-------------3-0-----0-1-----1-5-------------5-|
Db|-0-000-0-1-111-1-3-333-333-333-3-0-000-0-1-111-1-5-555-555-555-5-|
      xxx     xxx     xxx xxx xxx     xxx     xxx     xxx xxx xxx  

Eb|-----------------------------------------------------------------|
Bb|-----------------------------------------------------------------|
Gb|---------------------------------7-7-7-7-7-5-5-5-8-8-8-8-8-7-7-7-|
Db|-0-----0-1-----1-3---------------x-x-x-x-x-x-x-x-x-x-x-x-x-x-x-x-|
Ab|-0-----0-1-----1-3---------------5-5-5-5-5-3-3-3-6-6-6-6-6-5-5-5-|
Db|-0-000-0-1-111-1-3-333-333-333-3---------------------------------|
  |   xxx     xxx     xxx xxx xxx     
  |
  |(Second Guitar)
Eb|------------------------------------------------------------------|
Bb|------------------------------------------------------------------|
Gb|---------------------------------10101010108-8-8-1111111111101010-|
Db|---------------------------------x-x-x-x-x-x-x-x-x-x-x-x-x-x-x-x--|
Ab|---------------------------------8-8-8-8-8-6-6-6-9-9-9-9-9-8-8-8--|
Db|------------------------------------------------------------------|     


Pre-chorus
Eb|-------------------------------------------------------------|
Bb|-------------------------------------------------------------|
Gb|-1-1-1-1-1-1-1-1-1-1-1-1-1-1-1-1-1-1-1-1-1-1-1-1-------------|
Db|-x-x-x-x-x-x-x-x-x-x-x-x-x-x-x-x-x-x-x-x-x-x-x-x-0~~---------|
Ab|-8-8-8-8-8-8-8-8-8-8-8-8-8-8-8-8-8-8-8-8-8-8-8-8-0~~---------|
Db|-------------------------------------------------0~~-0-3-5-7-|


Chorus
Eb|------------------------------------------------------------------|
Bb|------------------------------------------------------------------|
Gb|------------------------------------------------------------------|
Db|------3-0-5-0-3-0------3---5---3--------2---3---5---8-8--8-7-7--7-|
Ab|----0~---------------3~--3---3---3----2~--2---2---2-5-5--5-5-5--5-|
Db|-00-0~------------33-3~------------22-2~------------5-5--5-5-5--5-|
    xx               xx               xx      


pre-verse
Eb|---------------------------|
Bb|---------------------------|
Gb|---------------------------|
Db|-8-8-8--888-8--8--8--8--8--|
Ab|-6-6-6--666-6--6--6--6--6--|
Db|-6-6-6--666-6--6--6--6--6--|
      

Buildup
Eb|--------------------------------------------------|
Bb|--------------------------------------------------|
Gb|--------------------------------------------------|
Db|-0~~-0-1~~-1-8~~-8-5~-1~0~~-0-1~~-1-8~~-8-5-5--1~-|
Ab|-0~~-0-1~~-1-8~~-8-5~-1~0~~-0-1~~-1-8~~-8-5-5--1~-|
Db|-0~~-0-1~~-1-8~~-8-5~-1~0~~-0-1~~-1-8~~-8-5-5--1~-|          

Eb|------------------------------------------------------------|
Bb|------------------------------------------------------------|
Gb|------------------------------------------------------------|
Db|-0~-0-0-0-0-0-0-1~-1-1-1-1-1-1-8~-8-8-8-8-8-8-5~-5-5-1~-1-1-|
Ab|-0~-0-0-0-0-0-0-1~-1-1-1-1-1-1-8~-8-8-8-8-8-8-5~-5-5-1~-1-1-|
Db|-0~-0-0-0-0-0-0-1~-1-1-1-1-1-1-8~-8-8-8-8-8-8-5~-5-5-1~-1-1-|
  |    x x x x x x    x x x x x x    x x x x x x    x x    x x              
  |
  |(second Guitar)
Eb|------------------------------------------------------------|
Bb|------------------------------------------------------------|
Gb|----------7-5---7------8-------7--------5~~-----------------|
Db|----------x-x---x------x-------x--------x-------------------|
Ab|----------5-3---5------6-------5--------3~~-----------------|
Db|------------------------------------------------------------|x2


Eb|---------------------------------------------------------|
Bb|---------------------------------------------------------|
Gb|---------------------------------------------------------|
Db|-0-0-0-0-0-0-0-0-1-1-1-1-1-1-1-1-8-8-8-8-8-8-8-8-5---1---|
Ab|-0-0-0-0-0-0-0-0-1-1-1-1-1-1-1-1-8-8-8-8-8-8-8-8-5---1---|
Db|-0-0-0-0-0-0-0-0-1-1-1-1-1-1-1-1-8-8-8-8-8-8-8-8-5---1---|
  | x x x x x x x x x x x x x x x x 
  |
  |(second Guitar)
Eb|---------------------------------------------------------|
Bb|---------------------------------------------------------|
Gb|---------7---5---7-------8-------7-------5~~-------------|
Db|---------x---x---x-------x-------x-------x---------------|
Ab|---------5---3---5-------6-------5-------3~~-------------|
Db|---------------------------------------------------------|x2


Solo          
Eb|-------------------------22-20-18-20-18-17-18-17--17------|
Bb|-15----15----15----15---------------------------20--20-19-|
Gb|-18^19-18^19-18^19-17^18----------------------------------|
Db|----------------------------------------------------------|
Ab|----------------------------------------------------------|
Db|----------------------------------------------------------|

Eb|------------------------------------------------------------------------|
Bb|-20-19--------19-20-19--------19-20p19--19h20h19p-19h20p19p--19h20h19p--|
Gb|------20-19-20--------20-19-20--------20h-------20h-------20h-------20h-|
Db|------------------------------------------------------------------------|
Ab|------------------------------------------------------------------------|
Db|------------------------------------------------------------------------|

          
Eb|----17^18^17----------------------------------------------------|
Bb|-19-------------------------------------------------------------|
Gb|----------------------------------------------------------------|
Db|------------12121212121212-13~-12-10--10------------------------|
Ab|------------------------------------13--13-12-10-12-12^13-------|
Db|---------------------------------------------------------13-12~-|
       b

Eb|----------------------------------------------|
Bb|----------------------------------------------|
Gb|-----------------12-14~-------12141514~12-12~-|
Db|-/12-14-15-14-15--------121415----------------|
Ab|----------------------------------------------|
Db|----------------------------------------------|

Eb|------------------------------------------------------------|
Bb|-/15-18p15h18p15h-15h18h15p18h15p-15h17h15p-15-16^18^16^18~-|
Gb|----------------17h-------------17h-------17h---------------|
Db|------------------------------------------------------------|
Ab|------------------------------------------------------------|
Db|------------------------------------------------------------|
                                                  b     b

Eb|-----------------------------------------------------|
Bb|-----------------------------------------------------|
Gb|-7/19-17--17-----------------------------------------|
Db|--------20--20-19-20-19-17-19-17--19^20^19-----------|
Ab|--------------------------------20--------17-20~-19~-|
Db|-----------------------------------------------------|
                                     b


End
Eb|-------------------------------------------------------------|
Bb|-------------------------------------------------------------|
Gb|-------------------------------------------------------------|
Db|-8-8-8--888-8-8-8-8--888-8-8-8-8-888-10-10-10-101010-10-0~~~-|
Ab|-6-6-6--666-6-6-6-6--666-6-6-6-6-666-8--8--8--8-8-8--8--0~~~-|
Db|-6-6-6--666-6-6-6-6--666-6-6-6-6-666-8--8--8--8-8-8--8--0~~~-|





Intro
Main x3
Prechorus
Chorus x2
Preverse
Main x2
Prechorus
Chorus x2
Buildup
Solo [Solo Fill: Main x2)
Chorus x4
End


************************************

| /   slide up
| \   slide down
| h   hammer-on
| p   pull-off
| ~   let ring
| +   pinch harmonic
| x   Mute note
| b   Bend

************************************
Добавлено: 08.07.2013
Другие материалы по этой песне:
  • Аккорды и текст

Страница создана 08.07.2013
http://primanota.ru/misc-unsigned-bands/guilty-verdikt-cardiac-torture-chamber-chords.htm
Привет, Гость.
Предлагаем пройти революционный курс по гитаре.
Подарок от PrimaNota.Ru, забирай!