PrimaNota.ru - самый крупный в мире бесплатный архив песенных текстов, аккордов, табулатур и нот


Misc Unsigned Bands - Gumi Megpoid - Poker Face - таба

Регистрация Запомнить меня
Войти через:  Facebook Google Twitter Vk Yandex Mail.ru

Misc Unsigned Bands - Gumi Megpoid - Poker Face - таба

Печатать
Просмотров: 109
I might have mistaken guitar 2 with bass sometimes, it can be omitted but it
doesn't sound bad if you don't :D
main guitar is guitar 1, only play tabs for guitar 1 if you are using one guitar

any questions or mistakes email me m4pleking@yahoo.com

0:00
guitar 2

E----------------------------------------------------------------|
B----------------------------------------------------------------|
G----------------------------------------------------------------|
D----------------------------------------------------------------|
A--------------------------5-7-----------------------------------|
E-0-0--0-3-3--3-5-5--5-5-7------0-0--0-3-3--3-5-5--5-7-7-5-3-----|
  * *  * * *  * * *  * * * * *  * *  * * *  * * *  * * * * *

E----------------------------------------------------------------|
B----------------------------------------------------------------|
G----------------------------------------------------------------|
D----------------------------------------------------------------|
A--------------------------5-7-----------------------------------|
E-0-0--0-3-3--3-5-5--5-5-7------0-0--0-3-3--3-3-5-3-5-7----------|
  * *  * * *  * * *  * * * * *  * *  * * *  * * * * * *

0:03
guitar 1

E---0~~~~~~~~~~--------------------------------------------------|
B-0--------------------------------------------------------------|
G----------------------------------------------------------------|
D----------------------------------------------------------------|
A----------------------------------------------------------------|
E----------------------------------------------------------------|

0:11
guitar 1

E-12----12-----15----15----15/17-17----17-----18----18-----------|
B----12----12-----15----15----------17----17-----18----18--------|
G----------------------------------------------------------------|
D----------------------------------------------------------------| x4
A----------------------------------------------------------------|
E----------------------------------------------------------------|

guitar 2

E----------------------------------------------------------------|
B-9-9-9-9-7-9--9-9-9-9-7-9--9-9-9-9-7-9--9/12-9-7-7--------------|
G-x-x-x-x-x-x--x-x-x-x-x-x--x-x-x-x-x-x--x/x--x-x-x--------------|
D-7-7-7-7-5-7--7-7-7-7-5-7--7-7-7-7-5-7--7/10-7-5-5--------------| x4
A----------------------------------------------------------------|
E----------------------------------------------------------------|

0:42
guitar 1

E-12----12-----15----15----15/17-17----17-----18----18-----------|
B----12----12-----15----15----------17----17-----18----18--------|
G----------------------------------------------------------------|
D----------------------------------------------------------------| x2
A----------------------------------------------------------------|
E----------------------------------------------------------------|

guitar 2

E------------------------------------------------------------------------|
B------------------------------------------------------------------------|
G------------------------------------------------------------------------|
D-2-2-2-2-2-2-2-2-5-5-5-5-5-5-5-5-5-7-7-7-7-7-7-7-7-8-8-8-8-8-8-8-8-8----|
A-2-2-2-2-2-2-2-2-5-5-5-5-5-5-5-5-5-7-7-7-7-7-7-7-7-8-8-8-8-8-8-8-8-8----|
E-2-2-2-2-2-2-2-2-5-5-5-5-5-5-5-5-5-7-7-7-7-7-7-7-7-8-8-8-8-8-8-8-8-8----|

E------------------------------------------------------------------------|
B------------------------------------------------------------------------|
G------------------------------------------------------------------------|
D-2-2-2-2-2-2-2-2-5-5-5-5-5-5-5-5-5-7-7-7-7-7-7-7-7-8--8--7--7-----------|
A-2-2-2-2-2-2-2-2-5-5-5-5-5-5-5-5-5-7-7-7-7-7-7-7-7-8--8--7--7-----------|
E-2-2-2-2-2-2-2-2-5-5-5-5-5-5-5-5-5-7-7-7-7-7-7-7-7-8--8--7--7-----------|

1:03
guitar 1

E----------------------------------------------------------------------------------|
B----------------------------------------------------------------------------------|
G-9-9-9-9-9-9-9-9-11-11-11-11-11-11-11-11-12-12-12-12-12-12-12-12-7-7-7-7-7-7-7-7--|
D-x-x-x-x-x-x-x-x--x--x--x--x--x--x--x--x--x--x--x--x--x--x--x--x-x-x-x-x-x-x-x-x--|
A-7-7-7-7-7-7-7-7--9--9--9--9--9--9--9--9-10-10-10-10-10-10-10-10-5-5-5-5-5-5-5-5--|
E----------------------------------------------------------------------------------|

E----------------------------------------------------------------------------------|
B----------------------------------------------------------------------------------|
G-9-9-9-9-9-9-9-9-11-11-11-11-11-11-11-11-12-12-12-12-14-14-14-14-16-16-16-16------|
D-x-x-x-x-x-x-x-x--x--x--x--x--x--x--x--x--x--x--x--x--x--x--x--x--x--x--x--x------|
A-7-7-7-7-7-7-7-7--9--9--9--9--9--9--9--9-10-10-10-10-12-12-12-12-14-14-14-14------|
E----------------------------------------------------------------------------------|

E----------------------------------------------------------------|
B-19-19-19-19----------------------------------------------------|
G--x--x--x--x----------------------------------------------------|
D-17-17-17-17----------------------------------------------------|
A----------------------------------------------------------------|
E----------------------------------------------------------------|

guitar 2

E-------------------------------------------------------------------|
B-------------------------------------------------------------------|
G-5-5-5-5-5-5-5-5-4-4-4-4-4-4-4-4-----------------7-7-7-7-7-7-7-7---|
D-x-x-x-x-x-x-x-x-x-x-x-x-x-x-x-x-2-2-2-2-2-2-2-2-x-x-x-x-x-x-x-x---|
A-3-3-3-3-3-3-3-3-2-2-2-2-2-2-2-2-2-2-2-2-2-2-2-2-5-5-5-5-5-5-5-5---|
E---------------------------------2-2-2-2-2-2-2-2-------------------|

E-------------------------------------------------------------------|
B-------------------------------------------------------------------|
G-5-5-5-5-5-5-5-5-4-4-4-4-4-4-4-4-----------------------------------|
D-x-x-x-x-x-x-x-x-x-x-x-x-x-x-x-x-2-2-2-2-5-5-5-5-7-7-7-7-9-9-9-9---|
A-3-3-3-3-3-3-3-3-2-2-2-2-2-2-2-2-2-2-2-2-5-5-5-5-7-7-7-7-9-9-9-9---|
E---------------------------------2-2-2-2-5-5-5-5-7-7-7-7-9-9-9-9---|

1:14
guitar 1

E----------------------------------------------------------------|
B----------------------------------------------------------------|
G----------------12-14-12-14-15-14-12----------------------------|
D-12/14-14-12-14----------------------14-------------------------| 
A----------------------------------------------------------------|
E----------------------------------------------------------------|

E----------------------------------------------------------------|
B----------------------------------------------------------------|
G----------12-14-12-14-15-14-12----------------------------------|
D-14-12-14----------------------14-------------------------------| x2
A----------------------------------------------------------------|
E----------------------------------------------------------------|

guitar 2

E-------------------------------------------------------------------|
B-------------------------------------------------------------------|
G-5-5-5-5-5-5-5-5-4-4-4-4-4-4-4-4-----------------------------------|
D-x-x-x-x-x-x-x-x-x-x-x-x-x-x-x-x-----------------------------------| x3
A-3-3-3-3-3-3-3-3-2-2-2-2-2-2-2-2-----------------------------------|
E-------------------------------------------------------------------|

1:19
guitar 3

E------------------------------------------------------------------|
B-9-9-9-9-7-9--9-9-9-9-7-9-----------------------------------------|
G-x-x-x-x-x-x--x-x-x-x-x-x-----------------------------------------|
D-9-9-9-9-7-9--9-9-9-9-7-9-----------------------------------------|
A------------------------------------------------------------------|
E------------------------------------------------------------------|

1:21
guitar 1

E----------------------------------------------------------------|
B----------------------------------------------------------------|
G----------------------------------------------------------------|
D------------------5-7-9-9-7-5-----------------------------------|
A-7-7--5-5--7-7--7-----------------------------------------------|
E----------------------------------------------------------------|
  * *  * *  * *  * * * * * * *

1:23
guitar 1

E----------------------------------------------------------------|
B----------------------------------------------------------------|
G----------------------------------------------------------------|
D----------------------------------------------------------------| x6
A--------------------------5-7-----------------------------------|
E-0-0--0-3-3--3-5-5--5-5-7------0-0--0-3-3--3-5-5--5-7-7-5-3-----|
  * *  * * *  * * *  * * * * *  * *  * * *  * * *  * * * * *
1:45
guitar 2

E----------------------------------------------------------------|
B------------------8---------------------------------------------|
G-9--7-9-7-9-7-9-7---7-------------------------------------------|
D----------------------------------------------------------------| x4
A----------------------------------------------------------------|
E----------------------------------------------------------------|

1:55
guitar 1

E----------------------------------------------------------------------------------|
B----------------------------------------------------------------------------------|
G-9-9-9-9-9-9-9-9-11-11-11-11-11-11-11-11-12-12-12-12-12-12-12-12-7-7-7-7-7-7-7-7--|
D-x-x-x-x-x-x-x-x--x--x--x--x--x--x--x--x--x--x--x--x--x--x--x--x-x-x-x-x-x-x-x-x--|
A-7-7-7-7-7-7-7-7--9--9--9--9--9--9--9--9-10-10-10-10-10-10-10-10-5-5-5-5-5-5-5-5--|
E----------------------------------------------------------------------------------|

E----------------------------------------------------------------------------------|
B----------------------------------------------------------------------------------|
G-9-9-9-9-9-9-9-9-11-11-11-11-11-11-11-11-12-12-12-12-14-14-14-14-16-16-16-16------|
D-x-x-x-x-x-x-x-x--x--x--x--x--x--x--x--x--x--x--x--x--x--x--x--x--x--x--x--x------|
A-7-7-7-7-7-7-7-7--9--9--9--9--9--9--9--9-10-10-10-10-12-12-12-12-14-14-14-14------|
E----------------------------------------------------------------------------------|

E----------------------------------------------------------------|
B-19-19-19-19----------------------------------------------------|
G--x--x--x--x----------------------------------------------------|
D-17-17-17-17----------------------------------------------------| (entire 3 lines x2)
A----------------------------------------------------------------|
E----------------------------------------------------------------|

guitar 2

E-------------------------------------------------------------------|
B-------------------------------------------------------------------|
G-5-5-5-5-5-5-5-5-4-4-4-4-4-4-4-4-----------------7-7-7-7-7-7-7-7---|
D-x-x-x-x-x-x-x-x-x-x-x-x-x-x-x-x-2-2-2-2-2-2-2-2-x-x-x-x-x-x-x-x---|
A-3-3-3-3-3-3-3-3-2-2-2-2-2-2-2-2-2-2-2-2-2-2-2-2-5-5-5-5-5-5-5-5---|
E---------------------------------2-2-2-2-2-2-2-2-------------------|

E-------------------------------------------------------------------|
B-------------------------------------------------------------------|
G-5-5-5-5-5-5-5-5-4-4-4-4-4-4-4-4-----------------------------------|
D-x-x-x-x-x-x-x-x-x-x-x-x-x-x-x-x-2-2-2-2-5-5-5-5-7-7-7-7-9-9-9-9---|(entire 2 lines x2)
A-3-3-3-3-3-3-3-3-2-2-2-2-2-2-2-2-2-2-2-2-5-5-5-5-7-7-7-7-9-9-9-9---|
E---------------------------------2-2-2-2-5-5-5-5-7-7-7-7-9-9-9-9---|

2:16
guitar 1

E-10-12-12-10-12-12-10-12-12-10-12-10-15-15---------------------|
B---------------------------------------------------------------|
G---------------------------------------------------------------|
D---------------------------------------------------------------| x2
A---------------------------------------------------------------|
E---------------------------------------------------------------|

E-12------------------------------------------------------------|
B----12-11-10-8-------8-10-11-12-12-12-12--12-12--12-12--12-12--|
G---------------9-8-9-------------------------------------------|
D---------------------------------------------------------------|
A---------------------------------------------------------------|
E---------------------------------------------------------------|

E---------------------------------------------------------------|
B---------------------------------------------------------------|
G---------------------------------------------------------------|
D---------------------------------------------------------------|
A-7-7-7-9-9-9-10-10-10-12-12-12-14-14-14-14---------------------|
E---------------------------------------------------------------|

E---------------------------------------------------------------|
B---------------------------------------------------------------|
G---------------------------------------------------------------|
D---------------------------------------------------------------|
A-9-9-9-10-10-10-12-12-12-14-14-14-14-17-17-17-17---------------|
E---------------------------------------------------------------|

E-17-17--17-15--17-17--17-15--17-15-----------------------------|
B---------------------------------------------------------------|
G---------------------------------------------------------------|
D---------------------------------------------------------------|
A---------------------------------------------------------------|
E---------------------------------------------------------------|

2:35
guitar 1

E---------------------------------------------------------------|
B---------------------------------------------------------------|
G---------------------------------------------------------------|
D--------------------5-7-7-9-9----------------------------------|
A-7-7--5-5--7-7--5-7--------------------------------------------|
E---------------------------------------------------------------|
  *  * *  * *  * * * * * * *

2:47
guitar 2

E-12~~~~~-------------------------------------------------------|
B---------------------------------------------------------------|
G---------------------------------------------------------------|
D---------------------------------------------------------------|
A---------------------------------------------------------------|
E---------------------------------------------------------------|

2:48
guitar 1

E----------------------------------------------------------------------------------|
B----------------------------------------------------------------------------------|
G-9-9-9-9-9-9-9-9-11-11-11-11-11-11-11-11-12-12-12-12-12-12-12-12-7-7-7-7-7-7-7-7--|
D-x-x-x-x-x-x-x-x--x--x--x--x--x--x--x--x--x--x--x--x--x--x--x--x-x-x-x-x-x-x-x-x--|
A-7-7-7-7-7-7-7-7--9--9--9--9--9--9--9--9-10-10-10-10-10-10-10-10-5-5-5-5-5-5-5-5--|
E----------------------------------------------------------------------------------|

E----------------------------------------------------------------------------------|
B----------------------------------------------------------------------------------|
G-9-9-9-9-9-9-9-9-11-11-11-11-11-11-11-11-12-12-12-12-14-14-14-14-16-16-16-16------|
D-x-x-x-x-x-x-x-x--x--x--x--x--x--x--x--x--x--x--x--x--x--x--x--x--x--x--x--x------|
A-7-7-7-7-7-7-7-7--9--9--9--9--9--9--9--9-10-10-10-10-12-12-12-12-14-14-14-14------|
E----------------------------------------------------------------------------------|

E----------------------------------------------------------------|
B-19-19-19-19----------------------------------------------------|
G--x--x--x--x----------------------------------------------------|
D-17-17-17-17----------------------------------------------------|(entire 3 lines x2)
A----------------------------------------------------------------|
E----------------------------------------------------------------|

guitar 2

E-------------------------------------------------------------------|
B-------------------------------------------------------------------|
G-5-5-5-5-5-5-5-5-4-4-4-4-4-4-4-4-----------------7-7-7-7-7-7-7-7---|
D-x-x-x-x-x-x-x-x-x-x-x-x-x-x-x-x-2-2-2-2-2-2-2-2-x-x-x-x-x-x-x-x---|
A-3-3-3-3-3-3-3-3-2-2-2-2-2-2-2-2-2-2-2-2-2-2-2-2-5-5-5-5-5-5-5-5---|
E---------------------------------2-2-2-2-2-2-2-2-------------------|

E-------------------------------------------------------------------|
B-------------------------------------------------------------------|
G-5-5-5-5-5-5-5-5-4-4-4-4-4-4-4-4-----------------------------------|
D-x-x-x-x-x-x-x-x-x-x-x-x-x-x-x-x-2-2-2-2-5-5-5-5-7-7-7-7-9-9-9-9---|(entire 2 lines x2)
A-3-3-3-3-3-3-3-3-2-2-2-2-2-2-2-2-2-2-2-2-5-5-5-5-7-7-7-7-9-9-9-9---|
E---------------------------------2-2-2-2-5-5-5-5-7-7-7-7-9-9-9-9---|


2:58
guitar 3

E----------------------------------------------------------------|
B----------------------------------------------------------------|
G----12-14-16-14-12----------12-14-16-14-16-14-16----------------|
D-14----------------14-12-14-------------------------------------|
A----------------------------------------------------------------|
E----------------------------------------------------------------|

E----------------------------------------------------------------|
B----------------------------------------------------------------|
G----12-14-16-14-12----------12-14-16-19-16-14-12----------------|
D-14----------------14-12-14-------------------------------------|
A----------------------------------------------------------------|
E----------------------------------------------------------------|

3:08
guitar 1

E----------------------------------------------------------------|
B----------------------------------------------------------------|
G----------------12-14-12-14-15-14-12----------------------------|
D-12/14-14-12-14----------------------14-------------------------| 
A----------------------------------------------------------------|
E----------------------------------------------------------------|

E----------------------------------------------------------------|
B----------------------------------------------------------------|
G----------12-14-12-14-15-14-12----------------------------------|
D-14-12-14----------------------14-------------------------------| x2
A----------------------------------------------------------------|
E----------------------------------------------------------------|

guitar 2

E-------------------------------------------------------------------|
B-------------------------------------------------------------------|
G-5-5-5-5-5-5-5-5-4-4-4-4-4-4-4-4-----------------7-7-7-7-7-7-7-7---|
D-x-x-x-x-x-x-x-x-x-x-x-x-x-x-x-x-2-2-2-2-2-2-2-2-x-x-x-x-x-x-x-x---|
A-3-3-3-3-3-3-3-3-2-2-2-2-2-2-2-2-2-2-2-2-2-2-2-2-5-5-5-5-5-5-5-5---|
E---------------------------------2-2-2-2-2-2-2-2-------------------|

E-------------------------------------------------------------------|
B-------------------------------------------------------------------|
G-5-5-5-5-5-5-5-5-4-4-4-4-4-4-4-4-----------------------------------|
D-x-x-x-x-x-x-x-x-x-x-x-x-x-x-x-x-----------------------------------|
A-3-3-3-3-3-3-3-3-2-2-2-2-2-2-2-2-----------------------------------|
E-------------------------------------------------------------------|

3:16
guitar 1

E----------------------------------------------------------------|
B----------------------------------------------------------------|
G----------------------------------------------------------------|
D------------------5-7-9-9-7-5-----------------------------------|
A-7-7--5-5--7-7--7-----------------------------------------------|
E----------------------------------------------------------------|
  * *  * *  * *  * * * * * * *
Добавлено: 10.10.2013
Другие материалы по этой песне:
  • Аккорды и текст

Страница создана 10.10.2013
http://primanota.ru/misc-unsigned-bands/gumi-megpoid-poker-face-chords.htm
Привет, Гость.
Предлагаем пройти революционный курс по гитаре.
Подарок от PrimaNota.Ru, забирай!