PrimaNota.ru - самый крупный в мире бесплатный архив песенных текстов, аккордов, табулатур и нот


Misc Unsigned Bands - Dragonlair - At Night We Rise - таба

Регистрация Запомнить меня
Войти через:  Facebook Google Twitter Vk Yandex Mail.ru

Misc Unsigned Bands - Dragonlair - At Night We Rise - таба

Печатать
Просмотров: 85
-------------------------------------------------------------------------------
                             At Night We Rise - Dragonlair
-------------------------------------------------------------------------------
Tabbed by: Jack                                          
                                                                      
Tuning: C Standard (C,F,A#,D#,G,C)                        
                                                          
Tablature for R.Guitar only                              
                                                        
Listen to song for timing                                

**********************************
                                                          
Intro - 107bpm                                            

e|--------------|------------------|---------------|---------------|
B|--------------|------------------|---------------|---------------|
G|--------------|------------------|---------------|---------------|
D|--------------|------------------|---------------|---------------|
A|-----10-----7-|------10---9h10p9-|------10-----7-|------10-------|
E|0-12----0-8---|-0-12----0--------|-0-12----0-8---|-0-12----8-10--|

e|--------------|------------------|---------------|---------------|
B|--------------|------------------|---------------|---------------|
G|--------------|------------------|---------------|---------------|
D|--------------|------------------|---------------|---------------|
A|-----10-----7-|------10---9h10p9-|------10-----7-|---------------|
E|0-12----0-8---|-0-12----0--------|-0-12----0-8---|-0-7-6-0-7-6---|  

Verse - 124bpm

e|------------------------------------|--------------------------------------|
B|------------------------------------|--------------------------------------|
G|------------------------------------|--------------------------------------|
D|------------------------------------|--------------------------------------|
A|--------12--------------------------|----------12--------------------------|
E|00000000--10-000000-10-12-00-8-10-7-|-00000000---10-000000-10-12-00-7-8-10-| 

Bridge 124bpm (4/4,4/4,5/4,6/4)

e|------------------|------------------|------------------------|
B|------------------|------------------|------------------------|
G|------------------|------------------|------------------------|
D|------------------|------------------|------------------------|
A|----0h9----0h6----|-----0h9----------|----0h9----0h6----6p3p0-|
E|0h6----0h8----0h5-|-0h6----00-00-000-|-0h6----0h8----0h5------|

e|------------------------------------|
B|------------------------------------|
G|------------------------------------|
D|------------------------------------|
A|------0h9-----0h6-------------------|
E|--0h6-----0h8-----0h5 00-00-00-000--|

Chorus - 98bpm

e|------------|------------|------------|---------------------|
B|------------|------------|------------|---------------------|
G|-----12\9\8-|------------|-----12\9\8-|---------------------|
D|------x\x\x-|------------|------x\x\x-|---------------------|
A|2----10\7\6-|------------|2----10\7\6-|------------5h6p5h6--|
E|0-00--------|-00-5h6-3h5-|0-00--------|-00-0-5h6p5h6--------|

e|------------|------------|-------------|--------------------|
B|------------|------------|-------------|--------------------|
G|-----12/9/8-|------------|------12/9/8-|--------------------|
D|------x/x/x-|------------|-------x/x/x-|--------------------|
A|2----10/7/6-|------------|-2----10/7/6-|------10^9^7^6^-----|
E|0-00--------|-00-6p3-5p3-|-0-00--------|-00-0---------------|
************************************
|Structure

|Intro (repeat x4)
|Verse (repeat x10)
|Bridge (no repeat)
|Chorus (repeat x2)
|Verse (repeat x 10)
|Bridge (no repeat)
|Chorus (repeat x4)
|Solo(=Chorus)(repeat x4)
|Bridge (no repeat)
|Chorus (repeat x8)

************************************

| /   slide up
| \   slide down
| h   hammer-on
| p   pull-off
| ~   vibrato
| +   harmonic
| x   Mute note
| b   Bend
| pb  Pre-bend
| br  Bend release
| pbr Pre-bend release
| brb Bend release bend

************************************
Добавлено: 12.07.2015
Другие материалы по этой песне:
  • Аккорды и текст

Страница создана 12.07.2015
http://primanota.ru/misc-unsigned-bands/dragonlair-at-night-we-rise-chords.htm
Привет, Гость.
Предлагаем пройти революционный курс по гитаре.
Подарок от PrimaNota.Ru, забирай!