PrimaNota.ru - самый крупный в мире бесплатный архив песенных текстов, аккордов, табулатур и нот


Misc Unsigned Bands - Fallen Fate - Pendulum - таба

Регистрация Запомнить меня
Войти через:  Facebook Google Twitter Vk Yandex Mail.ru

Misc Unsigned Bands - Fallen Fate - Pendulum - таба

Печатать
Просмотров: 36
FALLEN FATE
PENDULUM
REVENGANCE EP

DROP D TUNING

Tabbed by Lee


Intro - Main Riff
|--------------------------------------------------------------------------------------|
|--------------------------------------------------------------------------------------|
|-5h8-------------5h8---7h10---4h7--5h8---------------5h6p5---8----4h5p4---7-----------|
|-----0-0-000-000-----0------0----------0-0-000-000---------8------------7-------------|

|----------------------------------------------------10-8------------------------------|
|---------------------------------------------------------11-10-9----------------------|
|-5h8-------------5h8---7h10---4h7--5h8---------------------------10-8-10--------------|
|-----0-0-000-000-----0------0----------0-0-000-000------------------------------------|

|--------------------------------------------------------------------------------------|
|--------------------------------------------------------------------------------------|
|-5h8-------------5h8---7h10---4h7--5h8---------------5h6p5---8----4h5p4---7-----------|
|-----0-0-000-000-----0------0----------0-0-000-000---------8------------7-------------|

|--------------------------------------------------------------------------------------|
|--------------------------------------------------------------------------------------|
|-5h8-------------5h8---7h10---4h7--5h8---------------8-6-----------8----7-------------|
|-----0-0-000-000-----0------0----------0-0-000-000--------11-10-9----10---------------|


Pre-Verse Riff
|--------------------------------------------------------------------------------------|
|--------------------------------------------------------------------------------------|
|---------------12----11----10----9---------------------8----7-----------8-7-----------|
|-00-000-00-000----15----14----13---12---00-000-00-000----11---10---7-10---------------|

|--------------------------------------------------------------------------------------|
|--------------------------------------------------------------------------------------|
|---------------12----11----10----9---------------------------8-7-------8-7------------|
|-00-000-00-000----15----14----13---12---00-000-00-000---7-10------7-11----------------|

|--------------------------------------------------------------------------------------|
|--------------------------------------------------------------------------------------|
|---------------12----11----10----9---------------------8----7-----------8-7-----------|
|-00-000-00-000----15----14----13---12---00-000-00-000----11---10---7-10---------------|

|--------------------------------------------------------------------------------------|
|--------------------------------------------------------------------------------------|
|---------------12----11----10----9---------------------------8-7--7h8p7--5-4----------|
|-00-000-00-000----15----14----13---12---00-000-00-000---7-10--------------------------|


Verse
|--------------------------------------------------------------------------------------|
|----------------------------8-7-------------------------------------------------------|
|-----------------------5-6--6-5-------------------10-8-7-----13-10-12-----------------|
|-00-000-00-000-00-000--5-6-------00-000-00-000--8---------10--------------------------|

|--------------------------------------------------------------------------------------|
|----------------------------8-7-------------------------------------------------------|
|-----------------------5-6--6-5-------------------10-8-7--7h8p7----7------------------|
|-00-000-00-000-00-000--5-6-------00-000-00-000--8---------------11--------------------|

|--------------------------------------------------------------------------------------|
|----------------------------8-7-------------------------------------------------------|
|-----------------------5-6--6-5-------------------10-8-7-----13-10-12-----------------|
|-00-100-00-100-00-100--5-6-------00-100-00-100--8---------11--------------------------|

|-----------------------------------------------------------------------------------------------|
|----------------------------8-7----------------------------------------------------------------|
|-----------------------5-6--6-5---------------------10-8-7--7h8p7----7-------8-7-5--4h5p4---8--|
|-00-100-00-100-00-100--5-6-------00-100-00-100----8---------------11-------5--------------7----|


Chorus - Main Riff
|--------------------------------------------------------------------------------------|
|--------------------------------------------------------------------------------------|
|-5h8-------------5h8---7h10---4h7--5h8---------------5h6p5---8----4h5p4---7-----------|
|-----0-0-000-000-----0------0----------0-0-000-000---------8------------7-------------|

|----------------------------------------------------10-8------------------------------|
|---------------------------------------------------------11-10-9----------------------|
|-5h8-------------5h8---7h10---4h7--5h8---------------------------10-8-10--------------|
|-----0-0-000-000-----0------0----------0-0-000-000------------------------------------|

|--------------------------------------------------------------------------------------|
|--------------------------------------------------------------------------------------|
|-5h8-------------5h8---7h10---4h7--5h8---------------5h6p5---8----4h5p4---7-----------|
|-----0-0-000-000-----0------0----------0-0-000-000---------8------------7-------------|

|--------------------------------------------------------------------------------------|
|--------------------------------------------------------------------------------------|
|-5h8-------------5h8---7h10---4h7--5h8---------------8-6-----------8----7-------------|
|-----0-0-000-000-----0------0----------0-0-000-000--------11-10-9----10---------------|


Solo Backing - play twice
|--------------------------------------------------------------------------------------|
|--------------------------------------------------------------------------------------|
|------------------------------5---5-5---4---4-4--8-4----------------------------------|
|-00-000-00-000-00-000-00-000--5-5-5-5---7-7-7-7---------------------------------------|


Verse


Bridge - X4
|------------------------------------------------------------------|
|------------------------------------------------------------------|
|--------12--------0--12----11br----------12--------0--8----7br----|
|-00-000-12-00-000-0-----15--------00-000-12-00-000-0----11--------|

This Riff on the 4th Time
|------------------------------------------------------------------|
|------------------------------------------------------------------|
|--------12--------0--12----11br----------12----------8-7------8-7-|
|-00-000-12-00-000-0-----15--------00-000-12-00--7-10-----7-11-----|


Bridge Riff 2 - X2
|--------------------------------------------------------------------|
|--------------------------------------------------------------------|
|--------12/--------0--12----11br----------12/--------0--8----7br----|
|-00-000-12/-00-000-0-----15--------00-000-12/-00-000-0----11--------|

|--------------------------------------------------------------------|
|--------------------------------------------------------------------|
|--------12/--------0--12----11br----------12/----------8-7------8-7-|
|-00-000-12/-00-000-0-----15--------00-000-12/-00--7-10-----7-11-----|


Bridge Riff 3 - X3
|-------------------------------------------------------------------------|
|-10---77--------------------------9---66---------------------------------|
|--8---55--------5--------4--------7---44-------10-8-7--7h8p7--5-4--------|
|----0----00-5-8---8--4-7---7--------0----00--8---------------------------|

This Riff on the 4th time
|----------------------------------------------------------------------------------------------|
|-10---77--------------------------9---66------------------------------------------------------|
|--8---55--------5--------4--------7---44-----------5--------4-------8-7-------8-7------0--//--|
|----0----00-5-8---8--4-7---7--------0----00----5-8---8--4-7---7---7-----10-11-----11---0--//--|


Intro Riff

Chorus

End On
|-------------------------|
|-------------------------|
|---------8----7h8--0-//--|
|-5-6-7-8----7------0-//--|

www.myspace.com/fallenfate1
Добавлено: 03.12.2013
Другие материалы по этой песне:
  • Аккорды и текст

Страница создана 03.12.2013
http://primanota.ru/misc-unsigned-bands/fallen-fate-pendulum-chords.htm
Привет, Гость.
Предлагаем пройти революционный курс по гитаре.
Подарок от PrimaNota.Ru, забирай!