PrimaNota.ru - самый крупный в мире бесплатный архив песенных текстов, аккордов, табулатур и нот


Misc Unsigned Bands - Familjen - Det Snurrar I Min Skalle - таба

Регистрация Запомнить меня
Войти через:  Facebook Google Twitter Vk Yandex Mail.ru

Misc Unsigned Bands - Familjen - Det Snurrar I Min Skalle - таба

Печатать
Просмотров: 78
This is the song played with guitar.
It's my first tab ever :D

Familjens official homepage: http://www.detsnurrariminskalle.com/
Intro

Guitar 1

e|----------------------------------------|
B|---8-7----------------------------------|
G|-------7-9-4-----7-5-4-0-0-2-0----------|
D|----------------------------------------|
A|----------------------------------------|
E|----------------------------------------|

e|------------10--10-8-7------------------|
B|---8-7-----------------8-8-10-8---------|
G|-------7-9------------------------------|
D|----------------------------------------|
A|----------------------------------------|
E|----------------------------------------|

Guitar 2 
Plays a G Chord in intro



After intro
It
Добавлено: 07.11.2013
Другие материалы по этой песне:
  • Аккорды и текст

Страница создана 07.11.2013
http://primanota.ru/misc-unsigned-bands/familjen-det-snurrar-i-min-skalle-chords.htm
Привет, Гость.
Предлагаем пройти революционный курс по гитаре.
Подарок от PrimaNota.Ru, забирай!