PrimaNota.ru - самый крупный в мире бесплатный архив песенных текстов, аккордов, табулатур и нот


Misc Unsigned Bands - Fallen Traitors - Misty Lane - таба, видео

Регистрация Запомнить меня
Войти через:  Facebook Google Twitter Vk Yandex Mail.ru

Misc Unsigned Bands - Fallen Traitors - Misty Lane - таба, видео

Печатать
Просмотров: 71
Уроки эстрадного вокала в Санкт-Петербурге
Update!!!

Artist: Fallen Traitors
Song: Misty Lane
Album: GARBAGE
Year: 2010


Have fun!!! This is an original song, that I wrote when I was going through my 
early depressing stages...

Introduction (X4) -
E]---------------------------------------------------------|
G]---------------------------------------------------------|
B]----------------------7----------------------------------|
D]---9--9--7--7--9-7-9--7--7---9--9--7--7--5X5--5----------|
A]---9--9--7--7--9-5-9--7--7---9--9--7--7--5X5--5----------|
D]---7--7--5--5--7---7--5--5---7--7--5--5--3X3--3----------|

Chorus (X4) -
E]--------------------------------------------------------------------------|
B]--------------------------------------------------------------------------|
G]--------------------------------------------------------------------------|
D]---5---5---5---5---5---5---5---XX--3---3---3--XX--7---7---7--XX-----------|
A]---5---5---5---5---5---5---5---XX--3---3---3--XX--7---7---7--XX-----------|
D]---3---3---3---3---3---3---3---XX--1---1---1--XX--5---5---5--XX-----------|

Introduction (X2) -
E]---------------------------------------------------------|
G]---------------------------------------------------------|
B]----------------------7----------------------------------|
D]---9--9--7--7--9-7-9--7--7---9--9--7--7--5X5--5----------|
A]---9--9--7--7--9-5-9--7--7---9--9--7--7--5X5--5----------|
D]---7--7--5--5--7---7--5--5---7--7--5--5--3X3--3----------|

Chorus (X4) -
E]--------------------------------------------------------------------------|
B]--------------------------------------------------------------------------|
G]--------------------------------------------------------------------------|
D]---5---5---5---5---5---5---5---XX--3---3---3--XX--7---7---7--XX-----------|
A]---5---5---5---5---5---5---5---XX--3---3---3--XX--7---7---7--XX-----------|
D]---3---3---3---3---3---3---3---XX--1---1---1--XX--5---5---5--XX-----------|

Interlude (X4) - 
E]--14--14--14--14--14--14--14--14--14--14--14--14--14--14--14--------------|
B]----15--15--14--14--13--13--12--12--11--11--------------------------------|
G]--------------------------------------------14--14--13--13--12------------|
D]--------------------------------------------------------------------------|
A]--------------------------------------------------------------------------|
D]--------------------------------------------------------------------------|

Middle 8 (X4) -
E]--------------------------------------------------------------------------|
B]---7-------7--10--10--10--10--8--8--8--8--7--7--7--7--7--7--7-------------|
G]---7----7h9----9---9---9---9--7--7--7--7--7--7--7--7--7--7--7-------------|
D]---7----------11--11--11--11--9--9--9--9--7--7--7--7--7--7--7-------------|
A]---0--------------------------------------0--0--0--0--0--0--0-------------|
D]---0--------------------------------------0--0--0--0--0--0--0-------------|

Chorus (X2) -
E]--------------------------------------------------------------------------|
B]--------------------------------------------------------------------------|
G]--------------------------------------------------------------------------|
D]---5---5---5---5---5---5---5---XX--3---3---3--XX--7---7---7--XX-----------|
A]---5---5---5---5---5---5---5---XX--3---3---3--XX--7---7---7--XX-----------|
D]---3---3---3---3---3---3---3---XX--1---1---1--XX--5---5---5--XX-----------|

Interlude (X2) - 
E]--14--14--14--14--14--14--14--14--14--14--14--14--14--14--14--------------|
B]----15--15--14--14--13--13--12--12--11--11--------------------------------|
G]--------------------------------------------14--14--13--13--12------------|
D]--------------------------------------------------------------------------|
A]--------------------------------------------------------------------------|
D]--------------------------------------------------------------------------|

Introduction (X3) -
E]---------------------------------------------------------|
G]---------------------------------------------------------|
B]----------------------7----------------------------------|
D]---9--9--7--7--9-7-9--7--7---9--9--7--7--5X5--5----------|
A]---9--9--7--7--9-5-9--7--7---9--9--7--7--5X5--5----------|
D]---7--7--5--5--7---7--5--5---7--7--5--5--3X3--3----------|

E]--------------------------------------------------------------------------|
B]--------------------------------------------------------------------------|
G]--------------------------------------------------------------------------|
D]---5~~~~~~~~~~~~~~~~~~~~~~~~5-5-2-3-0~~~~~~~~~(fade out...)---------------|
A]---5~~~~~~~~~~~~~~~~~~~~~~~~5-3-0-1-0~~~~~~~~~(fade out...)---------------|
D]---3~~~~~~~~~~~~~~~~~~~~~~~~3-------0~~~~~~~~~(fade out...)---------------|

>>-----Legend-----<<
     /- Slide
    h- Hammer On
    X- Blocking
    ~- Vibrato
>>-----Legend-----<<

HOPE YOU ENJOY!!!!
Добавлено: 20.11.2013
Другие материалы по этой песне:
  • Аккорды и текст

Страница создана 20.11.2013
http://primanota.ru/misc-unsigned-bands/fallen-traitors-misty-lane-chords.htm
Привет, Гость.
Предлагаем пройти революционный курс по гитаре.
Подарок от PrimaNota.Ru, забирай!