PrimaNota.ru - самый крупный в мире бесплатный архив песенных текстов, аккордов, табулатур и нот


Misc Unsigned Bands - Faraquet - Cut Self Not - таба

Регистрация Запомнить меня
Войти через:  Facebook Google Twitter Vk Yandex Mail.ru

Misc Unsigned Bands - Faraquet - Cut Self Not - таба

Печатать
Просмотров: 77
Уроки эстрадного вокала в Санкт-Петербурге
Faraquet - Cut Self Not
From 'The View From This Tower'
dischord records

Tabbed by: Cory Prusha
email: interjection@gmail.com
youtube: porkstorm

Times indicate the first playing of a riff. Some cool time signature play
here. This is everything, just know when to repeat what's already been played

0:00
e------------------------------------|
B------------------------------------|
G------------------------------------|
D------------------------------------|
A-5-3p0-7-3p0-5-5-5--3p0-7-3p0-5-5-5-|
E------------------------------------|
Bass intro


0:03
e---------------------|
B---------------------|
G---------------------|
D---------3-----0h3p0-|
A---0h2h3---3p0-------|
E-1-------------------|


0:11
e------------------------------|---|
B------------------------------|---|
G-------2p0-----------2p0------|-0-|
D-----0-----0-------0-----0-2~-|-0-|
A-0h3-----------0h3------------|-0-|
E------------------------------|---|

0:21             0:25
e----------------|-------------------|
B----------------|-----3^4-1-0-------|
G----------------|---2---------2---2-|
D--2--2-----2h3--|-3-------------3---|
A----------------|-------------------|
E-2--2---2h3-----|-------------------|


0:28                              0:39
e---------------------------------|-----------------|
B-------3---------3p1-------------|-3-------1-1/3\1-|
G---0h2---2p0---2-----2p0---0-2-0-|-2-2-----0-0-----|
D-3-----------3-----------3-------|-0---3~~-3-3/5\3-|
A---------------------------------|-----------------|
E---------------------------------|-----------------|


0:51
e--------------------------------|
B--------------------------------|
G-7---5---4---5---x-6--7---4---5-|
D-0---5---0---5---x-0--7---4---0-|
A-5---3---2---3---x-4--5---2---3-|
E--------------------------------|


1:12                                   1:22
e--------------------------------------|-------|
B-------3p0-1-------1h3p1--------------|-------|
G-0h2h3-------2h3---------2h3p0--3p2p0-|-------|
D--------------------------------------|-2-3-2-|
A--------------------------------------|-------|
E--------------------------------------|-------|

1:58
e---------------------|
B---------------------|
G-------------------2-|
D-------------------0-|
A---2-3/7-3\2-0-----0-|
E-3-------------2-3-3-|

2:02
e-----------------------------------------------------|-----------------------|
B-----------------------------------------------------|-----------------1h3-1-|
G-----2p0-------2p0----------------2p0-------2p0----2-|-----3p2----2h3--0---0-|
D-2-3-----3-2-3-----3-2-3-2p0--2-3-----3-2-3-----3-2--|-2-3-----3--3----0---0-|
A-----------------------------------------------------|-----------------------|
E-----------------------------------------------------|-----------------------|


2:36
e-----------------------------------------------------------|
B-----------------1h3-1---1-3/5-3-----3\1-3---------------3-|
G-----3p2----2h3--0---0---0-0~~-0-----0~~-0-3--(3)--2--3--3-|
D-2-3-----3--3----0---0---0-0~~-0-----0~~-0-0---x---0--3--0-|
A-----------------------------------------------x---0--0----|
E-----------------------------------------------------------|

Let me know if this is a good or bad way to format the tab. If you want to see more 
stuff here, let me know! Please email comments and corrections.
Добавлено: 05.01.2014
Другие материалы по этой песне:
  • Аккорды и текст

Страница создана 05.01.2014
http://primanota.ru/misc-unsigned-bands/faraquet-cut-self-not-chords.htm
Привет, Гость.
Предлагаем пройти революционный курс по гитаре.
Подарок от PrimaNota.Ru, забирай!