PrimaNota.ru - самый крупный в мире бесплатный архив песенных текстов, аккордов, табулатур и нот


Misc Unsigned Bands - Exordium - Blood Doesnt Bleed - таба

Регистрация Запомнить меня
Войти через:  Facebook Google Twitter Vk Yandex Mail.ru

Misc Unsigned Bands - Exordium - Blood Doesnt Bleed - таба

Печатать
Просмотров: 47
Gtr I (C G C F A D) - 'Lead'
Gtr II (C G C F A D) - 'Rhythm'

  Q=150
 4/4
  Gtr I Intro
    W                     +W
|-[12]----------------|-([12])----------------|
|---------------------|-----------------------|
|---------------------|-----------------------|
|---------------------|-----------------------|
|---------------------|-----------------------|
|---------------------|-----------------------|
|
| Gtr II
|   E  E E E E +E  Q       E   E E E E +E  Q
|---------------------|-----------------------|
|---------------------|-----------------------|
|---------------------|-----------------------|
|---------------------|-----------------------|
|---------------------|-----------------------|
|---0----0---0-(0)----|----0-----0---0-(0)----|


    W                     W
|-[15]----------------|-[14]-----------------|
|---------------------|----------------------|
|---------------------|----------------------|
|---------------------|----------------------|
|---------------------|----------------------|
|---------------------|----------------------|
|
|   E  E E E E +E  Q      E  E E E E +E  Q
|---------------------|----------------------|
|---------------------|----------------------|
|---------------------|----------------------|
|---------------------|----------------------|
|---------------------|----------------------|
|---8----8---8-(8)----|---7----7---7-(7)-----|


   W                     +W
|-12------------------|-(12)------------------|
|---------------------|-----------------------|
|---------------------|-----------------------|
|---------------------|-----------------------|
|---------------------|-----------------------|
|---------------------|-----------------------|
|
|  E E E E E +E  +Q       E  E E E E +E  +Q
|---------------------|-----------------------|
|---------------------|-----------------------|
|---------------------|-----------------------|
|---------------------|-----------------------|
|---------------------|-----------------------|
|--0---0---0-(0)-(0)--|---0----0---0-(0)-(0)--|


   W                     W
|-15------------------|-14------------------|
|---------------------|---------------------|
|---------------------|---------------------|
|---------------------|---------------------|
|---------------------|---------------------|
|---------------------|---------------------|
|
|  E E E E E +E  +Q      E E E E E +E  +Q
|---------------------|---------------------|
|---------------------|---------------------|
|---------------------|---------------------|
|---------------------|---------------------|
|---------------------|---------------------|
|--8---8---8-(8)-(8)--|--7---7---7-(7)-(7)--|


   W                  +W                   W                  W
|-12---------------|-(12)---------------|-15---------------|-14---------------|
|------------------|--------------------|------------------|------------------|
|------------------|--------------------|------------------|------------------|
|------------------|--------------------|------------------|------------------|
|------------------|--------------------|------------------|------------------|
|------------------|--------------------|------------------|------------------|
|
|  E E E E E E E E     E  E E E E E E E    E E E E E E E E    E E E E E E E E
|------------------|--------------------|------------------|------------------|
|------------------|--------------------|------------------|------------------|
|------------------|--------------------|------------------|------------------|
|------------------|--------------------|------------------|------------------|
|------------------|--------------------|------------------|------------------|
|--0-0-0-0-0-0-0-0-|---0--0-0-0-0-0-0-0-|--8-8-8-8-8-8-8-8-|--7-7-7-7-7-7-7-7-|

Verse
   E  E  E  E  E  E  E  E    E  E  E  E  E  E  E  E
|-12p10-12p10-12p10-12p10-|-13p10-13p10-13p10-13p10-|
|-------------------------|-------------------------|
|-------------------------|-------------------------|
|-------------------------|-------------------------|
|-------------------------|-------------------------|
|-------------------------|-------------------------|
|
|  E  E  E  E  E  E  E  E    E  E  E  E  E  E  E  E
|-------------------------|-------------------------|
|-------------------------|-------------------------|
|-------------------------|-------------------------|
|--0--0--0--0--0--0--0--0-|--0--0--0--0--0--0--0--0-|
|--0--0--0--0--0--0--0--0-|--0--0--0--0--0--0--0--0-|
|--0--0--0--0--0--0--0--0-|--0--0--0--0--0--0--0--0-|


   E  E  E  E  E  E  E  E    E  E  E  E  E  E  E  E
|-15p10-15p10-15p10-15p10-|-13p10-13p10-13p10-13p10-|
|-------------------------|-------------------------|
|-------------------------|-------------------------|
|-------------------------|-------------------------|
|-------------------------|-------------------------|
|-------------------------|-------------------------|
|
|  E  E  E  E  E  E  E  E    E  E  E  E  E  E  E  E
|-------------------------|-------------------------|
|-------------------------|-------------------------|
|-------------------------|-------------------------|
|--8--8--8--8--8--8--8--8-|--7--7--7--7--7--7--7--7-|
|--8--8--8--8--8--8--8--8-|--7--7--7--7--7--7--7--7-|
|--8--8--8--8--8--8--8--8-|--7--7--7--7--7--7--7--7-|


   E    E E    E  E    E E    E    E    E E    E  E    E E    E
|-12p==10-----10-12p==10-----10-|-13p==10-----10-13p==10-----10-|
|-------------------------------|-------------------------------|
|-------------------------------|-------------------------------|
|-------------------------------|-------------------------------|
|-------------------------------|-------------------------------|
|-------------------------------|-------------------------------|
|
|  S S  E S S  E  S S  E S S  E    S S  E S S  E  S S  E S S  E
|-------------------------------|-------------------------------|
|-------------------------------|-------------------------------|
|-------------------------------|-------------------------------|
|-------------------------------|-------------------------------|
|--0-0----0-0-----0-0----0-0----|--0-0----0-0-----0-0----0-0----|
|--0-0----0-0-----0-0----0-0----|--0-0----0-0-----0-0----0-0----|


   E    E E    E  E    E E    E
|-15p==10-----10-15p==10-----10--|
|--------------------------------|
|--------------------------------|
|--------------------------------|
|--------------------------------|
|--------------------------------|
|
|  S S  E S S  E  S S  E S S  E
|--------------------------------|
|--------------------------------|
|--------------------------------|
|--------------------------------|
|--8-8----8-8-----8-8----8-8-----|
|--8-8----8-8-----8-8----8-8-----|

                                 Pre-Chorus
   E    E E    E  E    E E    E    H     H       +W            H     H
|-13p==10-----10-13p==10-----10-|-------------|-------------|-------------|
|-------------------------------|-------------|-------------|-------------|
|-------------------------------|-------------|-------------|-------------|
|-------------------------------|-10S===12----|-(12)--------|-19S===12----|
|-------------------------------|-------------|-------------|-------------|
|-------------------------------|-------------|-------------|-------------|
|
|  S S  E S S  E  S S  E S S  E    W             +W            W
|-------------------------------|-------------|-------------|-------------|
|-------------------------------|-------------|-------------|-------------|
|-------------------------------|-------------|-------------|-------------|
|-------------------------------|--0----------|--(0)--------|--3----------|
|--7-7----7-7-----7-7----7-7----|--0----------|--(0)--------|--3----------|
|--7-7----7-7-----7-7----7-7----|--0----------|--(0)--------|--3----------|


   +W            S  S  S  S  S  S  S  S  S  S  S  S  S  S  S  S
|-------------|-------------------------------------------------|
|-------------|-------------------------------------------------|
|-------------|-------------------------10h12-10h12-10h12-10h12-|
|-(12)--------|-10h12-10h12-10h12-10h12-------------------------|
|-------------|-------------------------------------------------|
|-------------|-------------------------------------------------|
|
|  +W            W
|-------------|-------------------------------------------------|
|-------------|-------------------------------------------------|
|-------------|-------------------------------------------------|
|--(3)--------|--8----------------------------------------------|
|--(3)--------|--8----------------------------------------------|
|--(3)--------|--8----------------------------------------------|


   S   S  S  S  S  S  S  S  S  S  S  S  S  S  S  S
|--------------------------------------------------|
|--------------------------------------------------|
|--------------------------10h12-10h12-10h12-10h12-|
|-10h=12-10h12-10h12-10h12-------------------------|
|--------------------------------------------------|
|--------------------------------------------------|
|
| +W
|--------------------------------------------------|
|--------------------------------------------------|
|--------------------------------------------------|
|-(8)----------------------------------------------|
|-(8)----------------------------------------------|
|-(8)----------------------------------------------|


   S  S  S  S  S  S  S  S  S  S  S  S  S  S  S  S
|-------------------------------------------------|
|-------------------------------------------------|
|-------------------------19p12-19p12-19p12-19p12-|
|-19p12-19p12-19p12-19p12-------------------------|
|-------------------------------------------------|
|-------------------------------------------------|
|
|  W
|-------------------------------------------------|
|-------------------------------------------------|
|-------------------------------------------------|
|--5----------------------------------------------|
|--5----------------------------------------------|
|--5----------------------------------------------|


   S   S  S  S  S  S  S  S  S  S  S  S  S  S  S  S
|--------------------------------------------------|
|--------------------------------------------------|
|--------------------------19p12-19p12-19p12-19p12-|
|-19p=12-19p12-19p12-19p12-------------------------|
|--------------------------------------------------|
|--------------------------------------------------|
|
| +W
|--------------------------------------------------|
|--------------------------------------------------|
|--------------------------------------------------|
|-(5)----------------------------------------------|
|-(5)----------------------------------------------|
|-(5)----------------------------------------------|

Chorus
   S  S  S  S  S  S  S  S  S  S  S  S  S  S  S  S
|-------------------------------------------------|
|-------------------------------------------------|
|-------------------------10h12-10h12-10h12-10h12-|
|-10h12-10h12-10h12-10h12-------------------------|
|-------------------------------------------------|
|-------------------------------------------------|
|
|  S  S  S  S  S  S  S  S  S  S  S  S  S  S  S  S
|-------------------------------------------------|
|-------------------------------------------------|
|-------------------------------------------------|
|-------------------------------------------------|
|-------------------------------------------------|
|--8--8--8--8--8--8--8--8--8--8--8--8--8--8--8--8-|


   S  S  S  S  S  S  S  S  S  S  S  S  S  S  S  S
|-------------------------------------------------|
|-------------------------------------------------|
|-------------------------19p12-19p12-19p12-19p12-|
|-19p12-19p12-19p12-19p12-------------------------|
|-------------------------------------------------|
|-------------------------------------------------|
|
|  S  S  S  S  S  S  S  S  S  S  S  S  S  S  S  S
|-------------------------------------------------|
|-------------------------------------------------|
|-------------------------------------------------|
|-------------------------------------------------|
|-------------------------------------------------|
|--8--8--8--8--8--8--8--8--8--8--8--8--8--8--8--8-|


   S  S  S  S  S  S  S  S  S  S  S  S  S  S  S  S
|-------------------------------------------------|
|-------------------------------------------------|
|-------------------------10h12-10h12-10h12-10h12-|
|-10h12-10h12-10h12-10h12-------------------------|
|-------------------------------------------------|
|-------------------------------------------------|
|
|  S  S  S  S  S  S  S  S  S  S  S  S  S  S  S  S
|-------------------------------------------------|
|-------------------------------------------------|
|-------------------------------------------------|
|-------------------------------------------------|
|-------------------------------------------------|
|--5--5--5--5--5--5--5--5--5--5--5--5--5--5--5--5-|


   S  S  S  S  S  S  S  S  S  S  S  S  S  S  S  S
|-------------------------------------------------|
|-------------------------------------------------|
|-------------------------19p12-19p12-19p12-19p12-|
|-19p12-19p12-19p12-19p12-------------------------|
|-------------------------------------------------|
|-------------------------------------------------|
|
|  S  S  S  S  S  S  S  S  S  S  S  S  S  S  S  S
|-------------------------------------------------|
|-------------------------------------------------|
|-------------------------------------------------|
|-------------------------------------------------|
|-------------------------------------------------|
|--5--5--5--5--5--5--5--5--5--5--5--5--5--5--5--5-|


   S  S  S  S  S  S  S  S  S  S  S  S  S  S  S  S
|-------------------------------------------------|
|-------------------------------------------------|
|-------------------------10h12-10h12-10h12-10h12-|
|-10h12-10h12-10h12-10h12-------------------------|
|-------------------------------------------------|
|-------------------------------------------------|
|
|  S  S  S  S  S  S  S  S  S  S  S  S  S  S  S  S
|-------------------------------------------------|
|-------------------------------------------------|
|-------------------------------------------------|
|-------------------------------------------------|
|-------------------------------------------------|
|--3--3--3--3--3--3--3--3--3--3--3--3--3--3--3--3-|


   S  S  S  S  S  S  S  S  S  S  S  S  S  S  S  S
|-------------------------------------------------|
|-------------------------------------------------|
|-------------------------19p12-19p12-19p12-19p12-|
|-19p12-19p12-19p12-19p12-------------------------|
|-------------------------------------------------|
|-------------------------------------------------|
|
|  S  S  S  S  S  S  S  S  S  S  S  S  S  S  S  S
|-------------------------------------------------|
|-------------------------------------------------|
|-------------------------------------------------|
|-------------------------------------------------|
|-------------------------------------------------|
|--3--3--3--3--3--3--3--3--3--3--3--3--3--3--3--3-|


   S  S  S  S  S  S  S  S  S  S  S  S  S  S  S  S
|-------------------------------------------------|
|-------------------------------------------------|
|-------------------------10h12-10h12-10h12-10h12-|
|-10h12-10h12-10h12-10h12-------------------------|
|-------------------------------------------------|
|-------------------------------------------------|
|
|  S  S  S  S  S  S  S  S  S  S  S  S  S  S  S  S
|-------------------------------------------------|
|-------------------------------------------------|
|-------------------------------------------------|
|-------------------------------------------------|
|-------------------------------------------------|
|--5--5--5--5--5--5--5--5--5--5--5--5--5--5--5--5-|


                                                   2/4             4/4
   S  S  S  S  S  S  S  S  S  S  S  S  S  S  S  S   S S S S E S S   W
|-------------------------------------------------|---------------|------|
|-------------------------------------------------|---------------|------|
|-------------------------19p12-19p12-19p12-19p12-|---------------|------|
|-19p12-19p12-19p12-19p12-------------------------|---------------|-0----|
|-------------------------------------------------|-x-x-x-x---x-x-|-0----|
|-------------------------------------------------|-x-x-x-x---x-x-|-0----|
|
|  S  S  S  S  S  S  S  S  S  S  S  S  S  S  S  S   S S S S E S S   W
|-------------------------------------------------|---------------|------|
|-------------------------------------------------|---------------|------|
|-------------------------------------------------|---------------|------|
|-------------------------------------------------|---------------|-0----|
|-------------------------------------------------|-x-x-x-x---x-x-|-0----|
|--5--5--5--5--5--5--5--5--5--5--5--5--5--5--5--5-|-x-x-x-x---x-x-|-0----|

Verse
   E  E  E  E  E  E  E  E    E  E  E  E  E  E  E  E
|-12p10-12p10-12p10-12p10-|-13p10-13p10-13p10-13p10-|
|-------------------------|-------------------------|
|-------------------------|-------------------------|
|-------------------------|-------------------------|
|-------------------------|-------------------------|
|-------------------------|-------------------------|
|
|  PM------------------|
|  E  E  E  E  E  E  E  E    E  E  E  E  E  E  E  E
|-------------------------|-------------------------|
|-------------------------|-------------------------|
|-------------------------|-------------------------|
|-------------------------|--0--0--0--0--0--0--0--0-|
|--------------0--0--0--0-|--0--0--0--0--0--0--0--0-|
|--0--0--0--0--0--0--0--0-|--0--0--0--0--0--0--0--0-|


   E  E  E  E  E  E  E  E    E  E  E  E  E  E  E  E
|-15p10-15p10-15p10-15p10-|-13p10-13p10-13p10-13p10-|
|-------------------------|-------------------------|
|-------------------------|-------------------------|
|-------------------------|-------------------------|
|-------------------------|-------------------------|
|-------------------------|-------------------------|
|
|  E  E  E  E  E  E  E  E    E  E  E  E  E  E  E  E
|-------------------------|-------------------------|
|-------------------------|-------------------------|
|-------------------------|-------------------------|
|--8--8--8--8--8--8--8--8-|--7--7--7--7--7--7--7--7-|
|--8--8--8--8--8--8--8--8-|--7--7--7--7--7--7--7--7-|
|--8--8--8--8--8--8--8--8-|--7--7--7--7--7--7--7--7-|


               PM             PM               PM             PM
   E    E E    E  E    E E    E    E    E E    E  E    E E    E
|-12p==10-----10-12p==10-----10-|-13p==10-----10-13p==10-----10-|
|-------------------------------|-------------------------------|
|-------------------------------|-------------------------------|
|-------------------------------|-------------------------------|
|-------------------------------|-------------------------------|
|-------------------------------|-------------------------------|
|
|         PM|            PM|              PM|            PM|
|  S S  E S S  E  S S  E S S  E    S S  E S S  E  S S  E S S  E
|-------------------------------|-------------------------------|
|-------------------------------|-------------------------------|
|-------------------------------|-------------------------------|
|-------------------------------|-------------------------------|
|--0-0----0-0-----0-0----0-0----|--0-0----0-0-----0-0----0-0----|
|--0-0----0-0-----0-0----0-0----|--0-0----0-0-----0-0----0-0----|


               PM             PM
   E    E E    E  E    E E    E
|-15p==10-----10-15p==10-----10--|
|--------------------------------|
|--------------------------------|
|--------------------------------|
|--------------------------------|
|--------------------------------|
|
|         PM|            PM|
|  S S  E S S  E  S S  E S S  E
|--------------------------------|
|--------------------------------|
|--------------------------------|
|--------------------------------|
|--8-8----8-8-----8-8----8-8-----|
|--8-8----8-8-----8-8----8-8-----|

                                 Pre-Chorus
               PM             PM
   E    E E    E  E    E E    E    H     H       +W            H     H
|-13p==10-----10-13p==10-----10-|-------------|-------------|-------------|
|-------------------------------|-------------|-------------|-------------|
|-------------------------------|-------------|-------------|-------------|
|-------------------------------|-10S===12----|-(12)--------|-19S===12----|
|-------------------------------|-------------|-------------|-------------|
|-------------------------------|-------------|-------------|-------------|
|
|         PM|            PM|
|  S S  E S S  E  S S  E S S  E    W             +W            W
|-------------------------------|-------------|-------------|-------------|
|-------------------------------|-------------|-------------|-------------|
|-------------------------------|-------------|-------------|-------------|
|-------------------------------|--0----------|--(0)--------|--3----------|
|--7-7----7-7-----7-7----7-7----|--0----------|--(0)--------|--3----------|
|--7-7----7-7-----7-7----7-7----|--0----------|--(0)--------|--3----------|


   +W            S  S  S  S  S  S  S  S  S  S  S  S  S  S  S  S
|-------------|-------------------------------------------------|
|-------------|-------------------------------------------------|
|-------------|-------------------------10h12-10h12-10h12-10h12-|
|-(12)--------|-10h12-10h12-10h12-10h12-------------------------|
|-------------|-------------------------------------------------|
|-------------|-------------------------------------------------|
|
|  +W            W
|-------------|-------------------------------------------------|
|-------------|-------------------------------------------------|
|-------------|-------------------------------------------------|
|--(3)--------|--8----------------------------------------------|
|--(3)--------|--8----------------------------------------------|
|--(3)--------|--8----------------------------------------------|


   S   S  S  S  S  S  S  S  S  S  S  S  S  S  S  S
|--------------------------------------------------|
|--------------------------------------------------|
|--------------------------10h12-10h12-10h12-10h12-|
|-10h=12-10h12-10h12-10h12-------------------------|
|--------------------------------------------------|
|--------------------------------------------------|
|
| +W
|--------------------------------------------------|
|--------------------------------------------------|
|--------------------------------------------------|
|-(8)----------------------------------------------|
|-(8)----------------------------------------------|
|-(8)----------------------------------------------|


   S  S  S  S  S  S  S  S  S  S  S  S  S  S  S  S
|-------------------------------------------------|
|-------------------------------------------------|
|-------------------------19p12-19p12-19p12-19p12-|
|-19p12-19p12-19p12-19p12-------------------------|
|-------------------------------------------------|
|-------------------------------------------------|
|
|  W
|-------------------------------------------------|
|-------------------------------------------------|
|-------------------------------------------------|
|--5----------------------------------------------|
|--5----------------------------------------------|
|--5----------------------------------------------|


   S   S  S  S  S  S  S  S  S  S  S  S  S  S  S  S
|--------------------------------------------------|
|--------------------------------------------------|
|--------------------------19p12-19p12-19p12-19p12-|
|-19p=12-19p12-19p12-19p12-------------------------|
|--------------------------------------------------|
|--------------------------------------------------|
|
| +W
|--------------------------------------------------|
|--------------------------------------------------|
|--------------------------------------------------|
|-(5)----------------------------------------------|
|-(5)----------------------------------------------|
|-(5)----------------------------------------------|

Chorus
   S  S  S  S  S  S  S  S  S  S  S  S  S  S  S  S
|-------------------------------------------------|
|-------------------------------------------------|
|-------------------------10h12-10h12-10h12-10h12-|
|-10h12-10h12-10h12-10h12-------------------------|
|-------------------------------------------------|
|-------------------------------------------------|
|
|  S  S  S  S  S  S  S  S  S  S  S  S  S  S  S  S
|-------------------------------------------------|
|-------------------------------------------------|
|-------------------------------------------------|
|-------------------------------------------------|
|-------------------------------------------------|
|--8--8--8--8--8--8--8--8--8--8--8--8--8--8--8--8-|


   S  S  S  S  S  S  S  S  S  S  S  S  S  S  S  S
|-------------------------------------------------|
|-------------------------------------------------|
|-------------------------19p12-19p12-19p12-19p12-|
|-19p12-19p12-19p12-19p12-------------------------|
|-------------------------------------------------|
|-------------------------------------------------|
|
|  S  S  S  S  S  S  S  S  S  S  S  S  S  S  S  S
|-------------------------------------------------|
|-------------------------------------------------|
|-------------------------------------------------|
|-------------------------------------------------|
|-------------------------------------------------|
|--8--8--8--8--8--8--8--8--8--8--8--8--8--8--8--8-|


   S  S  S  S  S  S  S  S  S  S  S  S  S  S  S  S
|-------------------------------------------------|
|-------------------------------------------------|
|-------------------------10h12-10h12-10h12-10h12-|
|-10h12-10h12-10h12-10h12-------------------------|
|-------------------------------------------------|
|-------------------------------------------------|
|
|  S  S  S  S  S  S  S  S  S  S  S  S  S  S  S  S
|-------------------------------------------------|
|-------------------------------------------------|
|-------------------------------------------------|
|-------------------------------------------------|
|-------------------------------------------------|
|--5--5--5--5--5--5--5--5--5--5--5--5--5--5--5--5-|


   S  S  S  S  S  S  S  S  S  S  S  S  S  S  S  S
|-------------------------------------------------|
|-------------------------------------------------|
|-------------------------19p12-19p12-19p12-19p12-|
|-19p12-19p12-19p12-19p12-------------------------|
|-------------------------------------------------|
|-------------------------------------------------|
|
|  S  S  S  S  S  S  S  S  S  S  S  S  S  S  S  S
|-------------------------------------------------|
|-------------------------------------------------|
|-------------------------------------------------|
|-------------------------------------------------|
|-------------------------------------------------|
|--5--5--5--5--5--5--5--5--5--5--5--5--5--5--5--5-|


   S  S  S  S  S  S  S  S  S  S  S  S  S  S  S  S
|-------------------------------------------------|
|-------------------------------------------------|
|-------------------------10h12-10h12-10h12-10h12-|
|-10h12-10h12-10h12-10h12-------------------------|
|-------------------------------------------------|
|-------------------------------------------------|
|
|  S  S  S  S  S  S  S  S  S  S  S  S  S  S  S  S
|-------------------------------------------------|
|-------------------------------------------------|
|-------------------------------------------------|
|-------------------------------------------------|
|-------------------------------------------------|
|--3--3--3--3--3--3--3--3--3--3--3--3--3--3--3--3-|


   S  S  S  S  S  S  S  S  S  S  S  S  S  S  S  S
|-------------------------------------------------|
|-------------------------------------------------|
|-------------------------19p12-19p12-19p12-19p12-|
|-19p12-19p12-19p12-19p12-------------------------|
|-------------------------------------------------|
|-------------------------------------------------|
|
|  S  S  S  S  S  S  S  S  S  S  S  S  S  S  S  S
|-------------------------------------------------|
|-------------------------------------------------|
|-------------------------------------------------|
|-------------------------------------------------|
|-------------------------------------------------|
|--3--3--3--3--3--3--3--3--3--3--3--3--3--3--3--3-|


   S  S  S  S  S  S  S  S  S  S  S  S  S  S  S  S
|-------------------------------------------------|
|-------------------------------------------------|
|-------------------------10h12-10h12-10h12-10h12-|
|-10h12-10h12-10h12-10h12-------------------------|
|-------------------------------------------------|
|-------------------------------------------------|
|
|  S  S  S  S  S  S  S  S  S  S  S  S  S  S  S  S
|-------------------------------------------------|
|-------------------------------------------------|
|-------------------------------------------------|
|-------------------------------------------------|
|-------------------------------------------------|
|--5--5--5--5--5--5--5--5--5--5--5--5--5--5--5--5-|


                                                   2/4             4/4
   S  S  S  S  S  S  S  S  S  S  S  S  S  S  S  S   S S S S E S S   W
|-------------------------------------------------|---------------|------|
|-------------------------------------------------|---------------|------|
|-------------------------19p12-19p12-19p12-19p12-|---------------|------|
|-19p12-19p12-19p12-19p12-------------------------|---------------|-0----|
|-------------------------------------------------|-x-x-x-x---x-x-|-0----|
|-------------------------------------------------|-x-x-x-x---x-x-|-0----|
|
|  S  S  S  S  S  S  S  S  S  S  S  S  S  S  S  S   S S S S E S S   W
|-------------------------------------------------|---------------|------|
|-------------------------------------------------|---------------|------|
|-------------------------------------------------|---------------|------|
|-------------------------------------------------|---------------|-0----|
|-------------------------------------------------|-x-x-x-x---x-x-|-0----|
|--5--5--5--5--5--5--5--5--5--5--5--5--5--5--5--5-|-x-x-x-x---x-x-|-0----|

Bridge
   PM|      PM---|      PM-----|      PM---|      PM-
   E  E  E  E  E  E  E  E    E  E  E  E  E  E  E  E
|-------------------------|-------------------------|
|-------------------------|-------------------------|
|-------14----------14----|-------17----------17----|
|-12-12----15-12-12----15-|-15-15----12-15-15----12-|
|-------------------------|-------------------------|
|-------------------------|-------------------------|
|
|  W                         W
|-------------------------|-------------------------|
|-------------------------|-------------------------|
|--3----------------------|-10----------------------|
|--3----------------------|-10----------------------|
|--1----------------------|--8----------------------|
|-------------------------|-------------------------|


 ----|     PM---|     PM-----|      PM---|      PM
   E  E  E E  E  E  E E    E  E  E  E  E  E  E  E
|-----------------------|-------------------------|
|-----------------------|-------------------------|
|-------12---------12---|-------17----------17----|
|-10-10----7-10-10----7-|-15-15----12-15-15----12-|
|-----------------------|-------------------------|
|-----------------------|-------------------------|
|
|  W                       W
|-----------------------|-------------------------|
|-----------------------|-------------------------|
|--5--------------------|--7----------------------|
|--5--------------------|--7----------------------|
|--3--------------------|--5----------------------|
|-----------------------|-------------------------|


   S  S  S  S  S  S  S      S      S      S      S  S  S  S  S  S
|-----------------------------------------------------------------|
|-----------------------------------------------------------------|
|-----------------------------------------------------------------|
|-12-12-12-12-12-12-12pb14-12pb14-12pb14-12pb14-12-12-12-12-12-12-|
|-----------------------------------------------------------------|
|-----------------------------------------------------------------|
|
|  W
|-----------------------------------------------------------------|
|-----------------------------------------------------------------|
|--3--------------------------------------------------------------|
|--3--------------------------------------------------------------|
|--1--------------------------------------------------------------|
|-----------------------------------------------------------------|


   S  S  S  S  S  S  S      S      S      S      S  S  S  S  S  S
|-----------------------------------------------------------------|
|-----------------------------------------------------------------|
|-----------------------------------------------------------------|
|-15-15-15-15-15-15-15pb17-15pb17-15pb17-15pb17-15-15-15-15-15-15-|
|-----------------------------------------------------------------|
|-----------------------------------------------------------------|
|
|  W
|-----------------------------------------------------------------|
|-----------------------------------------------------------------|
|-10--------------------------------------------------------------|
|-10--------------------------------------------------------------|
|--8--------------------------------------------------------------|
|-----------------------------------------------------------------|


   S  S  S  S  S  S  S      S      S      S      S  S  S  S  S  S
|-----------------------------------------------------------------|
|-----------------------------------------------------------------|
|-----------------------------------------------------------------|
|-10-10-10-10-10-10-10pb12-10pb12-10pb12-10pb12-10-10-10-10-10-10-|
|-----------------------------------------------------------------|
|-----------------------------------------------------------------|
|
|  W
|-----------------------------------------------------------------|
|-----------------------------------------------------------------|
|--5--------------------------------------------------------------|
|--5--------------------------------------------------------------|
|--3--------------------------------------------------------------|
|-----------------------------------------------------------------|


   S  S  S  S  S  S  S      S      S      S      S  S  S  S  S  S
|-----------------------------------------------------------------|
|-----------------------------------------------------------------|
|-----------------------------------------------------------------|
|-12-12-12-12-12-12-12pb14-12pb14-12pb14-12pb14-12-12-12-12-12-12-|
|-----------------------------------------------------------------|
|-----------------------------------------------------------------|
|
|  W
|-----------------------------------------------------------------|
|-----------------------------------------------------------------|
|--7--------------------------------------------------------------|
|--7--------------------------------------------------------------|
|--5--------------------------------------------------------------|
|-----------------------------------------------------------------|

Interlude
   S  S  S  S  S  S  S      S      S      S      S  S  S  S  S  S
|-----------------------------------------------------------------|
|-----------------------------------------------------------------|
|-----------------------------------------------------------------|
|-12-12-12-12-12-12-12pb14-12pb14-12pb14-12pb14-12-12-12-12-12-12S|
|-----------------------------------------------------------------|
|-----------------------------------------------------------------|
|
|  E     E     E     E             E             E     E     E
|-----------------------------------------------------------------|
|-----------------------------------------------------------------|
|--3-----3-----3-----3-------------3-------------3-----3-----3S===|
|--3-----3-----3-----3-------------3-------------3-----3-----3S===|
|--1-----1-----1-----1-------------1-------------1-----1-----1S===|
|-----------------------------------------------------------------|


   S  S  S  S  S  S  S      S      S      S      S  S  S  S  S  S
|------------------------------------------------------------------|
|------------------------------------------------------------------|
|------------------------------------------------------------------|
|-15-15-15-15-15-15-15pb17-15pb17-15pb17-15pb17-15-15-15-15-15-15S=|
|------------------------------------------------------------------|
|------------------------------------------------------------------|
|
|  E     E     E     E             E             E     E     E
|------------------------------------------------------------------|
|------------------------------------------------------------------|
|-10----10----10----10------------10------------10----10----10S====|
|-10----10----10----10------------10------------10----10----10S====|
|--8-----8-----8-----8-------------8-------------8-----8-----8S====|
|------------------------------------------------------------------|


   S  S  S  S  S  S  S      S      S      S      S  S  S  S  S  S
|-----------------------------------------------------------------|
|-----------------------------------------------------------------|
|-----------------------------------------------------------------|
|-10-10-10-10-10-10-10pb12-10pb12-10pb12-10pb12-10-10-10-10-10-10S|
|-----------------------------------------------------------------|
|-----------------------------------------------------------------|
|
|  E     E     E     E             E             E     E     E
|-----------------------------------------------------------------|
|-----------------------------------------------------------------|
|--5-----5-----5-----5-------------5-------------5-----5-----5S===|
|--5-----5-----5-----5-------------5-------------5-----5-----5S===|
|--3-----3-----3-----3-------------3-------------3-----3-----3S===|
|-----------------------------------------------------------------|


   S  S  S  S  S  S  S      S      S      S      S  S  S  S  S  S
|-----------------------------------------------------------------|
|-----------------------------------------------------------------|
|-----------------------------------------------------------------|
|-12-12-12-12-12-12-12pb14-12pb14-12pb14-12pb14-12-12-12-12-12-12-|
|-----------------------------------------------------------------|
|-----------------------------------------------------------------|
|
|  E     E     E     E             E             E     E     E
|-----------------------------------------------------------------|
|-----------------------------------------------------------------|
|--7-----7-----7-----7-------------7-------------7-----7-----7----|
|--7-----7-----7-----7-------------7-------------7-----7-----7----|
|--5-----5-----5-----5-------------5-------------5-----5-----5----|
|-----------------------------------------------------------------|

Breakdown
  Q=112       Q=112
  \1
              PM------------------------------------------|
  W           E S S Q     E S S Q       E S S Q     E S S Q
|-----------|-------------------------|--------------------------|
|-----------|-------------------------|--------------------------|
|-----------|-------------------------|--------------------------|
|-0---------|-------------------------|--------------------------|
|-0---------|-0-0-0-------0-0-0-------|-8-8-8-------8-8-8--------|
|-0---------|-0-0-0-------0-0-0-------|-7-7-7-------7-7-7--------|
|
| \1
|             PM----------------------------------------------|
| W           Q     E S S Q     E S S   Q     E S S Q     E S S
|-----------|-------------------------|--------------------------|
|-----------|-------------------------|--------------------------|
|-----------|-------------------------|--------------------------|
|-0---------|-------------------------|--------------------------|
|-0---------|-------0-0-0-------0-0-0-|-------8-8-8-------8-8-8--|
|-0---------|-------0-0-0-------0-0-0-|-------7-7-7-------7-7-7--|


                                                      Q=Q=Q=Q=Q=Q=Q=Q=Q=Q=Q=123
  PM------------------------------------------------------------------------|
  E S S Q     E S S Q       E S S Q     E S S Q       E S S E S S E S S E S S
|-------------------------|-------------------------|--------------------------|
|-------------------------|-------------------------|--------------------------|
|-------------------------|-------------------------|--------------------------|
|-------------------------|-------------------------|--------------------------|
|-4-4-4-------4-4-4-------|-3-3-3-------2-2-2-------|-0-0-0-0-0-0-0-0-0-0-0-0--|
|-3-3-3-------3-3-3-------|-2-2-2-------1-1-1-------|-0-0-0-0-0-0-0-0-0-0-0-0--|
|
| PM------------------------------------------------------------------------|
| Q     E S S Q     E S S   Q     E S S Q     E S S   E S S E S S E S S E S S
|-------------------------|-------------------------|--------------------------|
|-------------------------|-------------------------|--------------------------|
|-------------------------|-------------------------|--------------------------|
|-------------------------|-------------------------|--------------------------|
|-------4-4-4-------4-4-4-|-------3-3-3-------2-2-2-|-0-0-0-0-0-0-0-0-0-0-0-0--|
|-------3-3-3-------3-3-3-|-------2-2-2-------1-1-1-|-0-0-0-0-0-0-0-0-0-0-0-0--|


  Q=Q=Q=Q=Q=Q=Q=Q=Q=Q=Q=136 Q=Q=Q=Q=Q=Q=Q=Q=Q=Q=Q=149 Q=150
  Gtrs I, II
  PM------------------------------------------------------------------------|
  E S S E S S E S S E S S   E S S E S S E S S E S S   E S S E S S E S S E S S
|-------------------------|-------------------------|--------------------------|
|-------------------------|-------------------------|--------------------------|
|-------------------------|-------------------------|--------------------------|
|-------------------------|-------------------------|--------------------------|
|-8-8-8-8-8-8-8-8-8-8-8-8-|-4-4-4-4-4-4-4-4-4-4-4-4-|-3-3-3-3-3-3-2-2-2-2-2-2--|
|-7-7-7-7-7-7-7-7-7-7-7-7-|-3-3-3-3-3-3-3-3-3-3-3-3-|-2-2-2-2-2-2-1-1-1-1-1-1--|


  Gtr I
  PM-----------------------
  E S S E S S E S S E S S
|-------------------------|
|-------------------------|
|-------------------------|
|-------------------------|
|-0-0-0-0-0-0-0-0-0-0-0-0-|
|-0-0-0-0-0-0-0-0-0-0-0-0-|
|
| Gtr II
| W
|-------------------------|
|-------------------------|
|-7-----------------------|
|-x-----------------------|
|-5-----------------------|
|-------------------------|


 --------------------------------------------------|
   E S S E S S E S S E S S   E S S E S S E S S E S S
|--------------------------|--------------------------|
|--------------------------|--------------------------|
|--------------------------|--------------------------|
|--------------------------|--------------------------|
|--8-8-8-8-8-8-8-8-8-8-8-8-|-4-4-4-4-4-4-4-4-4-4-4-4--|
|--7-7-7-7-7-7-7-7-7-7-7-7-|-3-3-3-3-3-3-3-3-3-3-3-3--|
|
|  W                         W
|--------------------------|--------------------------|
|--------------------------|--------------------------|
|-10-----------------------|-9------------------------|
|--x-----------------------|-x------------------------|
|--8-----------------------|-7------------------------|
|--------------------------|--------------------------|


  PM-------------------------------------------------
  E S S E S S E S S E S S   E S S E S S E S S E S S
|-------------------------|-------------------------|
|-------------------------|-------------------------|
|-------------------------|-------------------------|
|-------------------------|-------------------------|
|-3-3-3-3-3-3-2-2-2-2-2-2-|-0-0-0-0-0-0-0-0-0-0-0-0-|
|-2-2-2-2-2-2-1-1-1-1-1-1-|-0-0-0-0-0-0-0-0-0-0-0-0-|
|
| W                         H           Q     Q
|-------------------------|-------------------------|
|-------------------------|-------------------------|
|-5-----------------------|-7-----------------7-----|
|-x-----------------------|-x-----------------------|
|-3-----------------------|-5-----------5-----------|
|-------------------------|-------------------------|


 -------------------------|
   E S S E S S E S S  E S S
|----------------------------|
|----------------------------|
|----------------------------|
|----------------------------|
|--8-8-8-8-8-8-8-8-8--8-8-8--|
|--7-7-7-7-7-7-7-7-7--7-7-7--|
|
|  H           Q      Q
|----------------------------|
|----------------------------|
|-10-----------------10------|
|--x-------------------------|
|--8-----------8-------------|
|----------------------------|


  PM-------------------------------------------------
  E S S E S S E S S E S S   E S S E S S E S S E S S
|-------------------------|-------------------------|
|-------------------------|-------------------------|
|-------------------------|-------------------------|
|-------------------------|-------------------------|
|-4-4-4-4-4-4-4-4-4-4-4-4-|-3-3-3-3-3-3-2-2-2-2-2-2-|
|-3-3-3-3-3-3-3-3-3-3-3-3-|-2-2-2-2-2-2-1-1-1-1-1-1-|
|
| H           Q     Q       H           Q     Q
|-------------------------|-------------------------|
|-------------------------|-------------------------|
|-9-----------------9-----|-5-----------------5-----|
|-x-----------------------|-x-----------------------|
|-7-----------7-----------|-3-----------3-----------|
|-------------------------|-------------------------|


 -------------------------|
  E S S E S S  E  S S E S S
|----------------------------|
|----------------------------|
|----------------------------|
|----------------------------|
|-0-0-0-0-0-0--0--0-0-0-0-0--|
|-0-0-0-0-0-0--0--0-0-0-0-0--|
|
| H            H
|----------------------------|
|----------------------------|
|--------------2-------------|
|-1-----------(1)------------|
|----------------------------|
|----------------------------|


   PM--------------------------------------------------------
   E  S S E S S  E  S S E S S    E  S S E S S  E  S S E S S
|-----------------------------|-----------------------------|
|-----------------------------|-----------------------------|
|-----------------------------|-----------------------------|
|-----------------------------|-----------------------------|
|--8--8-8-8-8-8--8--8-8-8-8-8-|--4--4-4-4-4-4--4--4-4-4-4-4-|
|--7--7-7-7-7-7--7--7-7-7-7-7-|--3--3-3-3-3-3--3--3-3-3-3-3-|
|
|  H             H               H             H
|-----------------------------|-----------------------------|
|-----------------------------|-----------------------------|
|-(2)------------3------------|-(3)------------2------------|
|--1------------(1)-----------|--0------------(0)-----------|
|-----------------------------|-----------------------------|
|-----------------------------|-----------------------------|


 ---------------------------|
   E  S S E S S  E  S S E S S
|------------------------------|
|------------------------------|
|------------------------------|
|------------------------------|
|--3--3-3-3-3-3--2--2-2-2-2-2--|
|--2--2-2-2-2-2--1--1-1-1-1-1--|
|
|  H             H
|------------------------------|
|------------------------------|
|-(2)------------1-------------|
|--0------------(0)------------|
|------------------------------|
|------------------------------|

Pre-Chorus
   H     H       +W            H     H       +W
|-------------|-------------|-------------|---------|
|-------------|-------------|-------------|---------|
|-------------|-------------|-------------|---------|
|-10S===12----|-(12)--------|-19S===12----|-(12)----|
|-------------|-------------|-------------|---------|
|-------------|-------------|-------------|---------|
|
|  W             +W            W             +W
|-------------|-------------|-------------|---------|
|-------------|-------------|-------------|---------|
|-------------|-------------|-------------|---------|
|--0----------|--(0)--------|--3----------|--(3)----|
|--0----------|--(0)--------|--3----------|--(3)----|
|--0----------|--(0)--------|--3----------|--(3)----|


   S  S  S  S  S  S  S  S  S  S  S  S  S  S  S  S
|-------------------------------------------------|
|-------------------------------------------------|
|-------------------------10h12-10h12-10h12-10h12-|
|-10h12-10h12-10h12-10h12-------------------------|
|-------------------------------------------------|
|-------------------------------------------------|
|
|  W
|-------------------------------------------------|
|-------------------------------------------------|
|-------------------------------------------------|
|--8----------------------------------------------|
|--8----------------------------------------------|
|--8----------------------------------------------|


   S   S  S  S  S  S  S  S  S  S  S  S  S  S  S  S
|--------------------------------------------------|
|--------------------------------------------------|
|--------------------------10h12-10h12-10h12-10h12-|
|-10h=12-10h12-10h12-10h12-------------------------|
|--------------------------------------------------|
|--------------------------------------------------|
|
| +W
|--------------------------------------------------|
|--------------------------------------------------|
|--------------------------------------------------|
|-(8)----------------------------------------------|
|-(8)----------------------------------------------|
|-(8)----------------------------------------------|


   S  S  S  S  S  S  S  S  S  S  S  S  S  S  S  S
|-------------------------------------------------|
|-------------------------------------------------|
|-------------------------19p12-19p12-19p12-19p12-|
|-19p12-19p12-19p12-19p12-------------------------|
|-------------------------------------------------|
|-------------------------------------------------|
|
|  W
|-------------------------------------------------|
|-------------------------------------------------|
|-------------------------------------------------|
|--5----------------------------------------------|
|--5----------------------------------------------|
|--5----------------------------------------------|


   S   S  S  S  S  S  S  S  S  S  S  S  S  S  S  S
|--------------------------------------------------|
|--------------------------------------------------|
|--------------------------19p12-19p12-19p12-19p12-|
|-19p=12-19p12-19p12-19p12-------------------------|
|--------------------------------------------------|
|--------------------------------------------------|
|
| +W
|--------------------------------------------------|
|--------------------------------------------------|
|--------------------------------------------------|
|-(5)----------------------------------------------|
|-(5)----------------------------------------------|
|-(5)----------------------------------------------|

Outro
   S  S  S  S  S  S  S      S      S      S      S  S  S  S  S  S
|-----------------------------------------------------------------|
|-----------------------------------------------------------------|
|-----------------------------------------------------------------|
|-12-12-12-12-12-12-12pb14-12pb14-12pb14-12pb14-12-12-12-12-12-12S|
|-----------------------------------------------------------------|
|-----------------------------------------------------------------|
|
|  W
|-----------------------------------------------------------------|
|-----------------------------------------------------------------|
|-----------------------------------------------------------------|
|--0--------------------------------------------------------------|
|--0--------------------------------------------------------------|
|--0--------------------------------------------------------------|


   S   S  S  S  S  S  S      S      S      S      S  S  S  S  S  S
|-------------------------------------------------------------------|
|-------------------------------------------------------------------|
|-------------------------------------------------------------------|
|-15--15-15-15-15-15-15pb17-15pb17-15pb17-15pb17-15-15-15-15-15-15S=|
|-------------------------------------------------------------------|
|-------------------------------------------------------------------|
|
| +W
|-------------------------------------------------------------------|
|-------------------------------------------------------------------|
|-------------------------------------------------------------------|
|-(0)---------------------------------------------------------------|
|-(0)---------------------------------------------------------------|
|-(0)---------------------------------------------------------------|


   S  S  S  S  S  S  S      S      S      S      S  S  S  S  S  S
|-----------------------------------------------------------------|
|-----------------------------------------------------------------|
|-----------------------------------------------------------------|
|-10-10-10-10-10-10-10pb12-10pb12-10pb12-10pb12-10-10-10-10-10-10S|
|-----------------------------------------------------------------|
|-----------------------------------------------------------------|


   S  S  S  S  S  S  S      S      S      S      S  S  S  S  S  S
|-----------------------------------------------------------------|
|-----------------------------------------------------------------|
|-----------------------------------------------------------------|
|-12-12-12-12-12-12-12pb14-12pb14-12pb14-12pb14-12-12-12-12-12-12-|
|-----------------------------------------------------------------|
|-----------------------------------------------------------------|


   S  S  S  S  S  S  S      S      S      S      S  S  S  S  S  S
|-----------------------------------------------------------------|
|-----------------------------------------------------------------|
|-----------------------------------------------------------------|
|-12-12-12-12-12-12-12pb14-12pb14-12pb14-12pb14-12-12-12-12-12-12S|
|-----------------------------------------------------------------|
|-----------------------------------------------------------------|


   S  S  S  S  S  S  S      S      S      S      S  S  S  S  S  S
|------------------------------------------------------------------|
|------------------------------------------------------------------|
|------------------------------------------------------------------|
|-15-15-15-15-15-15-15pb17-15pb17-15pb17-15pb17-15-15-15-15-15-15S=|
|------------------------------------------------------------------|
|------------------------------------------------------------------|


   S  S  S  S  S  S  S      S      S      S      S  S  S  S  S  S
|-----------------------------------------------------------------|
|-----------------------------------------------------------------|
|-----------------------------------------------------------------|
|-10-10-10-10-10-10-10pb12-10pb12-10pb12-10pb12-10-10-10-10-10-10S|
|-----------------------------------------------------------------|
|-----------------------------------------------------------------|


   S  S  S  S  S  S  S      S      S      S      S  S  S  S  S  S
|-----------------------------------------------------------------|
|-----------------------------------------------------------------|
|-----------------------------------------------------------------|
|-12-12-12-12-12-12-12pb14-12pb14-12pb14-12pb14-12-12-12-12-12-12-|
|-----------------------------------------------------------------|
|-----------------------------------------------------------------|


   S  S  S  S  S  S  S      S      S      S      S  S  S  S  S  S
|-----------------------------------------------------------------|
|-----------------------------------------------------------------|
|-----------------------------------------------------------------|
|-12-12-12-12-12-12-12pb14-12pb14-12pb14-12pb14-12-12-12-12-12-12S|
|-----------------------------------------------------------------|
|-----------------------------------------------------------------|


   S  S  S  S  S  S  S      S      S      S      S  S  S  S  S  S
|------------------------------------------------------------------|
|------------------------------------------------------------------|
|------------------------------------------------------------------|
|-15-15-15-15-15-15-15pb17-15pb17-15pb17-15pb17-15-15-15-15-15-15S=|
|------------------------------------------------------------------|
|------------------------------------------------------------------|


   S  S  S  S  S  S  S      S      S      S      S  S  S  S  S  S
|-----------------------------------------------------------------|
|-----------------------------------------------------------------|
|-----------------------------------------------------------------|
|-10-10-10-10-10-10-10pb12-10pb12-10pb12-10pb12-10-10-10-10-10-10S|
|-----------------------------------------------------------------|
|-----------------------------------------------------------------|


   S  S  S  S  S  S  S      S      S      S      S  S  S  S  S  S
|-----------------------------------------------------------------|
|-----------------------------------------------------------------|
|-----------------------------------------------------------------|
|-12-12-12-12-12-12-12pb14-12pb14-12pb14-12pb14-12-12-12-12-12-12-|
|-----------------------------------------------------------------|
|-----------------------------------------------------------------|


   W
|-------*|
|-------*|
|-------*|
|-12----*|
|-------*|
|-------*|


Duration Legend
---------------
W - whole; H - half; Q - quarter; E - 8th; S - 16th; T - 32nd; X - 64th; a - acciaccatura
+ - note tied to previous; . - note dotted; .. - note double dotted
Uncapitalized letters represent notes that are staccato (1/2 duration)
Irregular groupings are notated above the duration line
Duration letters will always appear directly above the note/fret number it represents the
duration for.  Duration letters with no fret number below them represent rests.  Multi-
bar rests are notated in the form Wxn, where n is the number of bars to rest for.  Low
melody durations appear below the staff

Tablature Legend
----------------
 h   - hammer-on
 p   - pull-off
 b   - bend
 pb  - pre-bend
 r   - bend release (if no number after the r, then release immediately)
 /\  - slide into or out of (from/to "nowhere")
 s   - legato slide
 S   - shift slide
  - natural harmonic
[n]  - artificial harmonic
n(n) - tapped harmonic
 ~   - vibrato
 tr  - trill
 T   - tap
 TP  - trem. picking
 PM  - palm muting
\n/  - tremolo bar dip; n = amount to dip
 \n  - tremolo bar down
 n/  - tremolo bar up
/n\  - tremolo bar inverted dip
 =   - hold bend; also acts as connecting device for hammers/pulls
 <>  - volume swell (louder/softer)
 x   - on rhythm slash represents muted slash
 o   - on rhythm slash represents single note slash

Misc Legend
-----------
 |  - bar
||  - double bar
||o - repeat start
o|| - repeat end
*|  - double bar (ending)
 :  - bar (freetime)
 $  - Segno
 &  - Coda
Tempo markers -  = BPM(8/16=s8/s16), where s8 = swing 8ths, s16 = swing 16ths

Добавлено: 10.06.2013
Другие материалы по этой песне:

Страница создана 10.06.2013
http://primanota.ru/misc-unsigned-bands/exordium-blood-doesnt-bleed-chords.htm
Привет, Гость.
Предлагаем пройти революционный курс по гитаре.
Подарок от PrimaNota.Ru, забирай!