PrimaNota.ru - самый крупный в мире бесплатный архив песенных текстов, аккордов, табулатур и нот


Misc Unsigned Bands - Exordium - To A Long History - таба

Регистрация Запомнить меня
Войти через:  Facebook Google Twitter Vk Yandex Mail.ru

Misc Unsigned Bands - Exordium - To A Long History - таба

Печатать
Просмотров: 48
Gtr I (D A D G B E) - 'Lead (Acoustic)'
Gtr II (D A D G B E) - 'Rhythm (Acoustic)'
Gtr III (D A D G B E) - 'Lead'
Gtr IV (D A D G B E) - 'Rhythm'

  Q=150
 4/4
  Gtr I Intro
  E E E E E E E E   E E E E E E E E   E E E E E E E E   E E E E E E E E
|-----------------|-----------------|-----------------|------------------|
|-----------------|-----------------|-----------------|------------------|
|-----7-------7---|-----7-------7---|-----7-------7---|-----7-------7----|
|-5-5---5-5-5---5-|-3-3---3-3-3---3-|-5-5---5-5-5---5-|-3-3---3-3-3---3--|
|-----------------|-----------------|-----------------|------------------|
|-----------------|-----------------|-----------------|------------------|
|
| Gtr II
| W                 W                 W                 W
|-----------------|-----------------|-----------------|------------------|
|-----------------|-----------------|-----------------|------------------|
|-----------------|-7---------------|-----------------|-5----------------|
|-0---------------|-7---------------|-5---------------|-5----------------|
|-0---------------|-5---------------|-5---------------|-3----------------|
|-0---------------|-----------------|-5---------------|------------------|


  E E E E E E E E   E E E E E E E E   E E  E E E E  E E   E E E E E E E E
|-----------------|-----------------|-------------------|-----------------|
|-----------------|-----------------|-------------------|-----------------|
|-----8-------8---|-----7-------7---|-----10-------10---|-----7-------7---|
|-5-5---5-5-5---5-|-3-3---3-3-3---3-|-5-5----5-5-5----5-|-3-3---3-3-3---3-|
|-----------------|-----------------|-------------------|-----------------|
|-----------------|-----------------|-------------------|-----------------|
|
| W                 W                 W                   W
|-----------------|-----------------|-------------------|-----------------|
|-----------------|-----------------|-------------------|-----------------|
|-----------------|-3---------------|-------------------|-3---------------|
|-1---------------|-3---------------|-1-----------------|-3---------------|
|-1---------------|-1---------------|-1-----------------|-1---------------|
|-1---------------|-----------------|-1-----------------|-----------------|


  Gtr III Verse
  PM|   PM--|   PM----|   PM--|   PM----|   PM--|   PM----|   PM--|   PM
  E E E E E E E E   E E E E E E E E   E E E E E E E E   E E E E E E E E
|-----------------|-----------------|-----------------|-----------------|
|-----------------|-----------------|-----------------|-----------------|
|-----7-------7---|-----7-------7---|-----7-------7---|-----7-------7---|
|-5-5---5-5-5---5-|-3-3---3-3-3---3-|-5-5---5-5-5---5-|-3-3---3-3-3---3-|
|-----------------|-----------------|-----------------|-----------------|
|-----------------|-----------------|-----------------|-----------------|
|
| Gtr IV
| E E E E E E E E   E E E E E E E E   E E E E E E E E   E E E E E E E E
|-----------------|-----------------|-----------------|-----------------|
|-----------------|-----------------|-----------------|-----------------|
|-----------------|-7-7-7-7-7-7-7-7-|-----------------|-5-5-5-5-5-5-5-5-|
|-0-0-0-0-0-0-0-0-|-7-7-7-7-7-7-7-7-|-5-5-5-5-5-5-5-5-|-5-5-5-5-5-5-5-5-|
|-0-0-0-0-0-0-0-0-|-5-5-5-5-5-5-5-5-|-5-5-5-5-5-5-5-5-|-3-3-3-3-3-3-3-3-|
|-0-0-0-0-0-0-0-0-|-----------------|-5-5-5-5-5-5-5-5-|-----------------|


  PM|   PM--|   PM----|   PM--|   PM----|    PM--|    PM----|   PM--|   PM
  E E E E E E E E   E E E E E E E E   E E  E E E E  E E   E E E E E E E E
|-----------------|-----------------|-------------------|-----------------|
|-----------------|-----------------|-------------------|-----------------|
|-----8-------8---|-----7-------7---|-----10-------10---|-----7-------7---|
|-5-5---5-5-5---5-|-3-3---3-3-3---3-|-5-5----5-5-5----5-|-3-3---3-3-3---3-|
|-----------------|-----------------|-------------------|-----------------|
|-----------------|-----------------|-------------------|-----------------|
|
| E E E E E E E E   E E E E E E E E   E E  E E E E  E E   E E E E E E E E
|-----------------|-----------------|-------------------|-----------------|
|-----------------|-----------------|-------------------|-----------------|
|-----------------|-3-3-3-3-3-3-3-3-|-------------------|-3-3-3-3-3-3-3-3-|
|-1-1-1-1-1-1-1-1-|-3-3-3-3-3-3-3-3-|-1-1--1-1-1-1--1-1-|-3-3-3-3-3-3-3-3-|
|-1-1-1-1-1-1-1-1-|-1-1-1-1-1-1-1-1-|-1-1--1-1-1-1--1-1-|-1-1-1-1-1-1-1-1-|
|-1-1-1-1-1-1-1-1-|-----------------|-1-1--1-1-1-1--1-1-|-----------------|

Chorus
  S S S S S     S     S     S     S     S     S     S     S S S S
|-----------------------------------------------------------------|
|-----------------------------------------------------------------|
|-----------------------------------------------------------------|
|-8-8-8-8-8pb10-8pb10-8pb10-8pb10-8pb10-8pb10-8pb10-8pb10-8-8-8-8-|
|-----------------------------------------------------------------|
|-----------------------------------------------------------------|
|
| E   E   E           E           E           E           E   E
|-----------------------------------------------------------------|
|-----------------------------------------------------------------|
|-----------------------------------------------------------------|
|-1---1---1-----------1-----------1-----------1-----------1---1---|
|-1---1---1-----------1-----------1-----------1-----------1---1---|
|-1---1---1-----------1-----------1-----------1-----------1---1---|


  S S S S S S S S S S S S S S S S
|---------------------------------|
|---------------------------------|
|---------------------------------|
|-7-7-7-7-7-7-7-7-7-7-7-7-7-7-7-7-|
|---------------------------------|
|---------------------------------|
|
| E   E   E   E   E   E   E   E
|---------------------------------|
|---------------------------------|
|-3---3---3---3---3---3---3---3---|
|-3---3---3---3---3---3---3---3---|
|-1---1---1---1---1---1---1---1---|
|---------------------------------|


   S  S  S  S  S      S      S      S      S      S      S      S      S  S  S  S
|---------------------------------------------------------------------------------|
|---------------------------------------------------------------------------------|
|---------------------------------------------------------------------------------|
|-10-10-10-10-10pb12-10pb12-10pb12-10pb12-10pb12-10pb12-10pb12-10pb12-10-10-10-10-|
|---------------------------------------------------------------------------------|
|---------------------------------------------------------------------------------|
|
|  E     E     E             E             E             E             E     E
|---------------------------------------------------------------------------------|
|---------------------------------------------------------------------------------|
|---------------------------------------------------------------------------------|
|--1-----1-----1-------------1-------------1-------------1-------------1-----1----|
|--1-----1-----1-------------1-------------1-------------1-------------1-----1----|
|--1-----1-----1-------------1-------------1-------------1-------------1-----1----|


  S S S S S     S     S     S     S     S     S     S     S S S S
|-----------------------------------------------------------------|
|-----------------------------------------------------------------|
|-----------------------------------------------------------------|
|-8-8-8-8-8pb10-8pb10-8pb10-8pb10-8pb10-8pb10-8pb10-8pb10-8-8-8-8-|
|-----------------------------------------------------------------|
|-----------------------------------------------------------------|
|
| E   E   E           E           E           E           E   E
|-----------------------------------------------------------------|
|-----------------------------------------------------------------|
|-3---3---3-----------3-----------3-----------3-----------3---3---|
|-3---3---3-----------3-----------3-----------3-----------3---3---|
|-1---1---1-----------1-----------1-----------1-----------1---1---|
|-----------------------------------------------------------------|


  S S S S S     S     S     S     S     S     S     S     S S S S
|-----------------------------------------------------------------|
|-----------------------------------------------------------------|
|-----------------------------------------------------------------|
|-8-8-8-8-8pb10-8pb10-8pb10-8pb10-8pb10-8pb10-8pb10-8pb10-8-8-8-8-|
|-----------------------------------------------------------------|
|-----------------------------------------------------------------|
|
| E   E   E           E           E           E           E   E
|-----------------------------------------------------------------|
|-----------------------------------------------------------------|
|-----------------------------------------------------------------|
|-1---1---1-----------1-----------1-----------1-----------1---1---|
|-1---1---1-----------1-----------1-----------1-----------1---1---|
|-1---1---1-----------1-----------1-----------1-----------1---1---|


  S S S S S S S S S S S S S S S S
|---------------------------------|
|---------------------------------|
|---------------------------------|
|-7-7-7-7-7-7-7-7-7-7-7-7-7-7-7-7-|
|---------------------------------|
|---------------------------------|
|
| E   E   E   E   E   E   E   E
|---------------------------------|
|---------------------------------|
|-3---3---3---3---3---3---3---3---|
|-3---3---3---3---3---3---3---3---|
|-1---1---1---1---1---1---1---1---|
|---------------------------------|


   S  S  S  S  S      S      S      S      S      S      S      S      S  S  S  S
|---------------------------------------------------------------------------------|
|---------------------------------------------------------------------------------|
|---------------------------------------------------------------------------------|
|-10-10-10-10-10pb12-10pb12-10pb12-10pb12-10pb12-10pb12-10pb12-10pb12-10-10-10-10-|
|---------------------------------------------------------------------------------|
|---------------------------------------------------------------------------------|
|
|  E     E     E             E             E             E             E     E
|---------------------------------------------------------------------------------|
|---------------------------------------------------------------------------------|
|---------------------------------------------------------------------------------|
|--1-----1-----1-------------1-------------1-------------1-------------1-----1----|
|--1-----1-----1-------------1-------------1-------------1-------------1-----1----|
|--1-----1-----1-------------1-------------1-------------1-------------1-----1----|


  S S S S S S S S S S S S S S S S
|---------------------------------|
|---------------------------------|
|---------------------------------|
|-8-8-8-8-8-8-8-8-8-8-8-8-8-8-8-8-|
|---------------------------------|
|---------------------------------|
|
| E   E   E   E   E   E   E   E
|---------------------------------|
|---------------------------------|
|-3---3---3---3---3---3---3---3---|
|-3---3---3---3---3---3---3---3---|
|-1---1---1---1---1---1---1---1---|
|---------------------------------|

Verse
  PM|   PM--|   PM----|   PM--|   PM----|   PM--|   PM----|   PM--|   PM
  E E E E E E E E   E E E E E E E E   E E E E E E E E   E E E E E E E E
|-----------------|-----------------|-----------------|-----------------|
|-----------------|-----------------|-----------------|-----------------|
|-----7-------7---|-----7-------7---|-----7-------7---|-----7-------7---|
|-5-5---5-5-5---5-|-3-3---3-3-3---3-|-5-5---5-5-5---5-|-3-3---3-3-3---3-|
|-----------------|-----------------|-----------------|-----------------|
|-----------------|-----------------|-----------------|-----------------|
|
| E E E E E E E E   E E E E E E E E   E E E E E E E E   E E E E E E E E
|-----------------|-----------------|-----------------|-----------------|
|-----------------|-----------------|-----------------|-----------------|
|-----------------|-7-7-7-7-7-7-7-7-|-----------------|-5-5-5-5-5-5-5-5-|
|-0-0-0-0-0-0-0-0-|-7-7-7-7-7-7-7-7-|-5-5-5-5-5-5-5-5-|-5-5-5-5-5-5-5-5-|
|-0-0-0-0-0-0-0-0-|-5-5-5-5-5-5-5-5-|-5-5-5-5-5-5-5-5-|-3-3-3-3-3-3-3-3-|
|-0-0-0-0-0-0-0-0-|-----------------|-5-5-5-5-5-5-5-5-|-----------------|


  PM|   PM--|   PM----|   PM--|   PM----|    PM--|    PM----|   PM--|   PM
  E E E E E E E E   E E E E E E E E   E E  E E E E  E E   E E E E E E E E
|-----------------|-----------------|-------------------|-----------------|
|-----------------|-----------------|-------------------|-----------------|
|-----8-------8---|-----7-------7---|-----10-------10---|-----7-------7---|
|-5-5---5-5-5---5-|-3-3---3-3-3---3-|-5-5----5-5-5----5-|-3-3---3-3-3---3-|
|-----------------|-----------------|-------------------|-----------------|
|-----------------|-----------------|-------------------|-----------------|
|
| E E E E E E E E   E E E E E E E E   E E  E E E E  E E   E E E E E E E E
|-----------------|-----------------|-------------------|-----------------|
|-----------------|-----------------|-------------------|-----------------|
|-----------------|-3-3-3-3-3-3-3-3-|-------------------|-3-3-3-3-3-3-3-3-|
|-1-1-1-1-1-1-1-1-|-3-3-3-3-3-3-3-3-|-1-1--1-1-1-1--1-1-|-3-3-3-3-3-3-3-3-|
|-1-1-1-1-1-1-1-1-|-1-1-1-1-1-1-1-1-|-1-1--1-1-1-1--1-1-|-1-1-1-1-1-1-1-1-|
|-1-1-1-1-1-1-1-1-|-----------------|-1-1--1-1-1-1--1-1-|-----------------|

Chorus
  S S S S S     S     S     S     S     S     S     S     S S S S
|-----------------------------------------------------------------|
|-----------------------------------------------------------------|
|-----------------------------------------------------------------|
|-8-8-8-8-8pb10-8pb10-8pb10-8pb10-8pb10-8pb10-8pb10-8pb10-8-8-8-8-|
|-----------------------------------------------------------------|
|-----------------------------------------------------------------|
|
| E   E   E           E           E           E           E   E
|-----------------------------------------------------------------|
|-----------------------------------------------------------------|
|-----------------------------------------------------------------|
|-1---1---1-----------1-----------1-----------1-----------1---1---|
|-1---1---1-----------1-----------1-----------1-----------1---1---|
|-1---1---1-----------1-----------1-----------1-----------1---1---|


  S S S S S S S S S S S S S S S S
|---------------------------------|
|---------------------------------|
|---------------------------------|
|-7-7-7-7-7-7-7-7-7-7-7-7-7-7-7-7-|
|---------------------------------|
|---------------------------------|
|
| E   E   E   E   E   E   E   E
|---------------------------------|
|---------------------------------|
|-3---3---3---3---3---3---3---3---|
|-3---3---3---3---3---3---3---3---|
|-1---1---1---1---1---1---1---1---|
|---------------------------------|


   S  S  S  S  S      S      S      S      S      S      S      S      S  S  S  S
|---------------------------------------------------------------------------------|
|---------------------------------------------------------------------------------|
|---------------------------------------------------------------------------------|
|-10-10-10-10-10pb12-10pb12-10pb12-10pb12-10pb12-10pb12-10pb12-10pb12-10-10-10-10-|
|---------------------------------------------------------------------------------|
|---------------------------------------------------------------------------------|
|
|  E     E     E             E             E             E             E     E
|---------------------------------------------------------------------------------|
|---------------------------------------------------------------------------------|
|---------------------------------------------------------------------------------|
|--1-----1-----1-------------1-------------1-------------1-------------1-----1----|
|--1-----1-----1-------------1-------------1-------------1-------------1-----1----|
|--1-----1-----1-------------1-------------1-------------1-------------1-----1----|


  S S S S S     S     S     S     S     S     S     S     S S S S
|-----------------------------------------------------------------|
|-----------------------------------------------------------------|
|-----------------------------------------------------------------|
|-8-8-8-8-8pb10-8pb10-8pb10-8pb10-8pb10-8pb10-8pb10-8pb10-8-8-8-8-|
|-----------------------------------------------------------------|
|-----------------------------------------------------------------|
|
| E   E   E           E           E           E           E   E
|-----------------------------------------------------------------|
|-----------------------------------------------------------------|
|-3---3---3-----------3-----------3-----------3-----------3---3---|
|-3---3---3-----------3-----------3-----------3-----------3---3---|
|-1---1---1-----------1-----------1-----------1-----------1---1---|
|-----------------------------------------------------------------|


  S S S S S     S     S     S     S     S     S     S     S S S S
|-----------------------------------------------------------------|
|-----------------------------------------------------------------|
|-----------------------------------------------------------------|
|-8-8-8-8-8pb10-8pb10-8pb10-8pb10-8pb10-8pb10-8pb10-8pb10-8-8-8-8-|
|-----------------------------------------------------------------|
|-----------------------------------------------------------------|
|
| E   E   E           E           E           E           E   E
|-----------------------------------------------------------------|
|-----------------------------------------------------------------|
|-----------------------------------------------------------------|
|-1---1---1-----------1-----------1-----------1-----------1---1---|
|-1---1---1-----------1-----------1-----------1-----------1---1---|
|-1---1---1-----------1-----------1-----------1-----------1---1---|


  S S S S S S S S S S S S S S S S
|---------------------------------|
|---------------------------------|
|---------------------------------|
|-7-7-7-7-7-7-7-7-7-7-7-7-7-7-7-7-|
|---------------------------------|
|---------------------------------|
|
| E   E   E   E   E   E   E   E
|---------------------------------|
|---------------------------------|
|-3---3---3---3---3---3---3---3---|
|-3---3---3---3---3---3---3---3---|
|-1---1---1---1---1---1---1---1---|
|---------------------------------|


   S  S  S  S  S      S      S      S      S      S      S      S      S  S  S  S
|---------------------------------------------------------------------------------|
|---------------------------------------------------------------------------------|
|---------------------------------------------------------------------------------|
|-10-10-10-10-10pb12-10pb12-10pb12-10pb12-10pb12-10pb12-10pb12-10pb12-10-10-10-10-|
|---------------------------------------------------------------------------------|
|---------------------------------------------------------------------------------|
|
|  E     E     E             E             E             E             E     E
|---------------------------------------------------------------------------------|
|---------------------------------------------------------------------------------|
|---------------------------------------------------------------------------------|
|--1-----1-----1-------------1-------------1-------------1-------------1-----1----|
|--1-----1-----1-------------1-------------1-------------1-------------1-----1----|
|--1-----1-----1-------------1-------------1-------------1-------------1-----1----|


  S S S S S S S S S S S S S S S S
|---------------------------------|
|---------------------------------|
|---------------------------------|
|-8-8-8-8-8-8-8-8-8-8-8-8-8-8-8-8-|
|---------------------------------|
|---------------------------------|
|
| E   E   E   E   E   E   E   E
|---------------------------------|
|---------------------------------|
|-3---3---3---3---3---3---3---3---|
|-3---3---3---3---3---3---3---3---|
|-1---1---1---1---1---1---1---1---|
|---------------------------------|


  Gtrs I, II Bridge
  E E E E E E E E   E E E E E E E E   E E E E E E E E   E E E E E E E E
|-----------------|-----------------|-----------------|-----------------|
|-----------------|-----------------|-----------------|-----------------|
|-----5-------5---|-----5-------5---|-----5-------5---|-----5-------5---|
|---3---3---3---3-|---3---3---3---3-|---3---3---3---3-|---3---3---3---3-|
|-0-------0-------|-0-------0-------|-1-------1-------|-1-------1-------|
|-----------------|-----------------|-----------------|-----------------|


  E E E E E E E E   E E E E E E E E   E E E E E E E E   E E E E E E E E
|-----------------|-----------------|-----------------|-----------------|
|-----------------|-----------------|-----------------|-----------------|
|-----5-------5---|-----5-------5---|-----5-------5---|-----5-------5---|
|---3---3---3---3-|---3---3---3---3-|---3---3---3---3-|---3---3---3---3-|
|-5-------5-------|-5-------5-------|-3-------3-------|-3-------3-------|
|-----------------|-----------------|-----------------|-----------------|


  E E E E E E E E   E E E E E E E E   E E E E E E E E   E E E E E E E E
|-----------------|-----------------|-----------------|-----------------|
|-----------------|-----------------|-----------------|-----------------|
|-----5-------5---|-----5-------5---|-----5-------5---|-----5-------5---|
|---3---3---3---3-|---3---3---3---3-|---3---3---3---3-|---3---3---3---3-|
|-0-------0-------|-0-------0-------|-1-------1-------|-1-------1-------|
|-----------------|-----------------|-----------------|-----------------|
|
| Gtr III
| W                 W                 W                 W
|-----------------|-----------------|-----------------|-----------------|
|-5---------------|-----------------|-----------------|-8---------------|
|-----------------|-5---------------|-7---------------|-----------------|
|-----------------|-----------------|-----------------|-----------------|
|-----------------|-----------------|-----------------|-----------------|
|-----------------|-----------------|-----------------|-----------------|


   E E E E E E E E   E E E E E E E E   E E E E E E E E    E  E E E E E E E
|------------------|-----------------|-----------------|-------------------|
|------------------|-----------------|-----------------|-------------------|
|------5-------5---|-----5-------5---|-----5-------5---|-------5-------5---|
|----3---3---3---3-|---3---3---3---3-|---3---3---3---3-|-----3---3---3---3-|
|--5-------5-------|-5-------5-------|-3-------3-------|--3--------3-------|
|------------------|-----------------|-----------------|-------------------|
|
|  W                 W                 W                 +W
|------------------|-----------------|-----------------|-------------------|
|-10---------------|-----------------|-----------------|-------------------|
|------------------|-9---------------|-7---------------|-(7)---------------|
|------------------|-----------------|-----------------|-------------------|
|------------------|-----------------|-----------------|-------------------|
|------------------|-----------------|-----------------|-------------------|


  E E E E E E E E   E E E E E E E E    E E E E E E E E    E E E E E E E E
|-----------------|-----------------|------------------|------------------|
|-----------------|-----------------|------------------|------------------|
|-----5-------5---|-----5-------5---|------5-------5---|------5-------5---|
|---3---3---3---3-|---3---3---3---3-|----3---3---3---3-|----3---3---3---3-|
|-0-------0-------|-0-------0-------|--1-------1-------|--1-------1-------|
|-----------------|-----------------|------------------|------------------|
|
| W                 W                  W                  W
|-----------------|-----------------|------------------|------------------|
|-5---------------|-----------------|------------------|--8---------------|
|-----------------|-5---------------|--7---------------|------------------|
|-----------------|-----------------|------------------|------------------|
|-----------------|-----------------|------------------|------------------|
|-----------------|-----------------|------------------|------------------|
|
| Gtr IV
| W                 W                  W                  W
|-----------------|-----------------|------------------|------------------|
|-8---------------|-----------------|------------------|-11---------------|
|-----------------|-9---------------|-10---------------|------------------|
|-----------------|-----------------|------------------|------------------|
|-----------------|-----------------|------------------|------------------|
|-----------------|-----------------|------------------|------------------|


   E E E E E E E E    E E E E E E E E    E E E E E E E E     E  E E E E E E E
|------------------|------------------|------------------|--------------------|
|------------------|------------------|------------------|--------------------|
|------5-------5---|------5-------5---|------5-------5---|--------5-------5---|
|----3---3---3---3-|----3---3---3---3-|----3---3---3---3-|------3---3---3---3-|
|--5-------5-------|--5-------5-------|--3-------3-------|---3--------3-------|
|------------------|------------------|------------------|--------------------|
|
|  W                  W                  W                  +W
|------------------|------------------|------------------|--------------------|
|-10---------------|------------------|------------------|--------------------|
|------------------|--9---------------|--7---------------|--(7)---------------|
|------------------|------------------|------------------|--------------------|
|------------------|------------------|------------------|--------------------|
|------------------|------------------|------------------|--------------------|
|
|  W                  W                  W                  +W
|------------------|------------------|------------------|--------------------|
|-13---------------|------------------|------------------|--------------------|
|------------------|-12---------------|-10---------------|-(10)---------------|
|------------------|------------------|------------------|--------------------|
|------------------|------------------|------------------|--------------------|
|------------------|------------------|------------------|--------------------|


  Gtr III Verse
  PM|   PM--|   PM----|   PM--|   PM----|   PM--|   PM----|   PM--|   PM
  E E E E E E E E   E E E E E E E E   E E E E E E E E   E E E E E E E E
|-----------------|-----------------|-----------------|-----------------|
|-----------------|-----------------|-----------------|-----------------|
|-----7-------7---|-----7-------7---|-----7-------7---|-----7-------7---|
|-5-5---5-5-5---5-|-3-3---3-3-3---3-|-5-5---5-5-5---5-|-3-3---3-3-3---3-|
|-----------------|-----------------|-----------------|-----------------|
|-----------------|-----------------|-----------------|-----------------|
|
| Gtr IV
| E E E E E E E E   E E E E E E E E   E E E E E E E E   E E E E E E E E
|-----------------|-----------------|-----------------|-----------------|
|-----------------|-----------------|-----------------|-----------------|
|-----------------|-7-7-7-7-7-7-7-7-|-----------------|-5-5-5-5-5-5-5-5-|
|-0-0-0-0-0-0-0-0-|-7-7-7-7-7-7-7-7-|-5-5-5-5-5-5-5-5-|-5-5-5-5-5-5-5-5-|
|-0-0-0-0-0-0-0-0-|-5-5-5-5-5-5-5-5-|-5-5-5-5-5-5-5-5-|-3-3-3-3-3-3-3-3-|
|-0-0-0-0-0-0-0-0-|-----------------|-5-5-5-5-5-5-5-5-|-----------------|


  PM|   PM--|   PM----|   PM--|   PM----|    PM--|    PM----|   PM--|   PM
  E E E E E E E E   E E E E E E E E   E E  E E E E  E E   E E E E E E E E
|-----------------|-----------------|-------------------|-----------------|
|-----------------|-----------------|-------------------|-----------------|
|-----8-------8---|-----7-------7---|-----10-------10---|-----7-------7---|
|-5-5---5-5-5---5-|-3-3---3-3-3---3-|-5-5----5-5-5----5-|-3-3---3-3-3---3-|
|-----------------|-----------------|-------------------|-----------------|
|-----------------|-----------------|-------------------|-----------------|
|
| E E E E E E E E   E E E E E E E E   E E  E E E E  E E   E E E E E E E E
|-----------------|-----------------|-------------------|-----------------|
|-----------------|-----------------|-------------------|-----------------|
|-----------------|-3-3-3-3-3-3-3-3-|-------------------|-3-3-3-3-3-3-3-3-|
|-1-1-1-1-1-1-1-1-|-3-3-3-3-3-3-3-3-|-1-1--1-1-1-1--1-1-|-3-3-3-3-3-3-3-3-|
|-1-1-1-1-1-1-1-1-|-1-1-1-1-1-1-1-1-|-1-1--1-1-1-1--1-1-|-1-1-1-1-1-1-1-1-|
|-1-1-1-1-1-1-1-1-|-----------------|-1-1--1-1-1-1--1-1-|-----------------|

Chorus
  S S S S S     S     S     S     S     S     S     S     S S S S
|-----------------------------------------------------------------|
|-----------------------------------------------------------------|
|-----------------------------------------------------------------|
|-8-8-8-8-8pb10-8pb10-8pb10-8pb10-8pb10-8pb10-8pb10-8pb10-8-8-8-8-|
|-----------------------------------------------------------------|
|-----------------------------------------------------------------|
|
| E   E   E           E           E           E           E   E
|-----------------------------------------------------------------|
|-----------------------------------------------------------------|
|-----------------------------------------------------------------|
|-1---1---1-----------1-----------1-----------1-----------1---1---|
|-1---1---1-----------1-----------1-----------1-----------1---1---|
|-1---1---1-----------1-----------1-----------1-----------1---1---|


  S S S S S S S S S S S S S S S S
|---------------------------------|
|---------------------------------|
|---------------------------------|
|-7-7-7-7-7-7-7-7-7-7-7-7-7-7-7-7-|
|---------------------------------|
|---------------------------------|
|
| E   E   E   E   E   E   E   E
|---------------------------------|
|---------------------------------|
|-3---3---3---3---3---3---3---3---|
|-3---3---3---3---3---3---3---3---|
|-1---1---1---1---1---1---1---1---|
|---------------------------------|


   S  S  S  S  S      S      S      S      S      S      S      S      S  S  S  S
|---------------------------------------------------------------------------------|
|---------------------------------------------------------------------------------|
|---------------------------------------------------------------------------------|
|-10-10-10-10-10pb12-10pb12-10pb12-10pb12-10pb12-10pb12-10pb12-10pb12-10-10-10-10-|
|---------------------------------------------------------------------------------|
|---------------------------------------------------------------------------------|
|
|  E     E     E             E             E             E             E     E
|---------------------------------------------------------------------------------|
|---------------------------------------------------------------------------------|
|---------------------------------------------------------------------------------|
|--1-----1-----1-------------1-------------1-------------1-------------1-----1----|
|--1-----1-----1-------------1-------------1-------------1-------------1-----1----|
|--1-----1-----1-------------1-------------1-------------1-------------1-----1----|


  S S S S S     S     S     S     S     S     S     S     S S S S
|-----------------------------------------------------------------|
|-----------------------------------------------------------------|
|-----------------------------------------------------------------|
|-8-8-8-8-8pb10-8pb10-8pb10-8pb10-8pb10-8pb10-8pb10-8pb10-8-8-8-8-|
|-----------------------------------------------------------------|
|-----------------------------------------------------------------|
|
| E   E   E           E           E           E           E   E
|-----------------------------------------------------------------|
|-----------------------------------------------------------------|
|-3---3---3-----------3-----------3-----------3-----------3---3---|
|-3---3---3-----------3-----------3-----------3-----------3---3---|
|-1---1---1-----------1-----------1-----------1-----------1---1---|
|-----------------------------------------------------------------|


  S S S S S     S     S     S     S     S     S     S     S S S S
|-----------------------------------------------------------------|
|-----------------------------------------------------------------|
|-----------------------------------------------------------------|
|-8-8-8-8-8pb10-8pb10-8pb10-8pb10-8pb10-8pb10-8pb10-8pb10-8-8-8-8-|
|-----------------------------------------------------------------|
|-----------------------------------------------------------------|
|
| E   E   E           E           E           E           E   E
|-----------------------------------------------------------------|
|-----------------------------------------------------------------|
|-----------------------------------------------------------------|
|-1---1---1-----------1-----------1-----------1-----------1---1---|
|-1---1---1-----------1-----------1-----------1-----------1---1---|
|-1---1---1-----------1-----------1-----------1-----------1---1---|


  S S S S S S S S S S S S S S S S
|---------------------------------|
|---------------------------------|
|---------------------------------|
|-7-7-7-7-7-7-7-7-7-7-7-7-7-7-7-7-|
|---------------------------------|
|---------------------------------|
|
| E   E   E   E   E   E   E   E
|---------------------------------|
|---------------------------------|
|-3---3---3---3---3---3---3---3---|
|-3---3---3---3---3---3---3---3---|
|-1---1---1---1---1---1---1---1---|
|---------------------------------|


   S  S  S  S  S      S      S      S      S      S      S      S      S  S  S  S
|---------------------------------------------------------------------------------|
|---------------------------------------------------------------------------------|
|---------------------------------------------------------------------------------|
|-10-10-10-10-10pb12-10pb12-10pb12-10pb12-10pb12-10pb12-10pb12-10pb12-10-10-10-10-|
|---------------------------------------------------------------------------------|
|---------------------------------------------------------------------------------|
|
|  E     E     E             E             E             E             E     E
|---------------------------------------------------------------------------------|
|---------------------------------------------------------------------------------|
|---------------------------------------------------------------------------------|
|--1-----1-----1-------------1-------------1-------------1-------------1-----1----|
|--1-----1-----1-------------1-------------1-------------1-------------1-----1----|
|--1-----1-----1-------------1-------------1-------------1-------------1-----1----|


  S S S S S S S S S S S S S S S S
|---------------------------------|
|---------------------------------|
|---------------------------------|
|-8-8-8-8-8-8-8-8-8-8-8-8-8-8-8-8-|
|---------------------------------|
|---------------------------------|
|
| E   E   E   E   E   E   E   E
|---------------------------------|
|---------------------------------|
|-3---3---3---3---3---3---3---3---|
|-3---3---3---3---3---3---3---3---|
|-1---1---1---1---1---1---1---1---|
|---------------------------------|

Breakdown
  PM--------------------------------------------------------|   PM--------|
  E E S S E S S S S S S E   E E S S E S S S S S S E   E E S S E S S S S S S E
|-------------------------|-------------------------|---------6-------------6--|
|-------------------------|-------------------------|---------5-------------5--|
|-------------------------|-------------------------|--------------------------|
|-------------------------|-------------------------|--------------------------|
|-0-0-0-0-0-0-0-0-0-0-0-0-|-0-0-0-0-0-0-0-0-0-0-0-0-|-0-0-0-0---0-0-0-0-0-0----|
|-0-0-0-0-0-0-0-0-0-0-0-0-|-0-0-0-0-0-0-0-0-0-0-0-0-|-0-0-0-0---0-0-0-0-0-0----|
|
| ~~~~~~~~~~~~~~~~~~~~~~~~~~~~                        PM----|   PM--------|
| W                         W                         E E S S E S S S S S S E
|-------------------------|-------------------------|---------6-------------6--|
|-------------------------|-------------------------|---------5-------------5--|
|-------------------------|-------------------------|--------------------------|
|-1-----------------------|-4-----------------------|--------------------------|
|-------------------------|-------------------------|-0-0-0-0---0-0-0-0-0-0----|
|-------------------------|-------------------------|-0-0-0-0---0-0-0-0-0-0----|


  PM----|   PM--------|     PM----------------------------------------------|
  E E S S E S S S S S S E   E E S S E S S S S S S E   E E S S E S S S S S S E
|---------6-------------6-|-------------------------|--------------------------|
|---------5-------------5-|-------------------------|--------------------------|
|-------------------------|-------------------------|--------------------------|
|-------------------------|-------------------------|--------------------------|
|-0-0-0-0---0-0-0-0-0-0---|-0-0-0-0-0-0-0-0-0-0-0-0-|-0-0-0-0-0-0-0-0-0-0-0-0--|
|-0-0-0-0---0-0-0-0-0-0---|-0-0-0-0-0-0-0-0-0-0-0-0-|-0-0-0-0-0-0-0-0-0-0-0-0--|
|
| PM----|   PM--------|     ~~~~~~~~~~~~~~~~~~~~~~~~~~~~
| E E S S E S S S S S S E   W                         W
|---------6-------------6-|-------------------------|--------------------------|
|---------5-------------5-|-------------------------|--------------------------|
|-------------------------|-------------------------|--------------------------|
|-------------------------|-1-----------------------|-4------------------------|
|-0-0-0-0---0-0-0-0-0-0---|-------------------------|--------------------------|
|-0-0-0-0---0-0-0-0-0-0---|-------------------------|--------------------------|


  Gtrs III, IV
  PM----|   PM--------|     PM----|   PM--------|
  E E S S E S S S S S S E   E E S S E S S S S S S E   W
|---------6-------------6-|---------6-------------6-|------|
|---------5-------------5-|---------5-------------5-|------|
|-------------------------|-------------------------|------|
|-------------------------|-------------------------|-0----|
|-0-0-0-0---0-0-0-0-0-0---|-0-0-0-0---0-0-0-0-0-0---|-0----|
|-0-0-0-0---0-0-0-0-0-0---|-0-0-0-0---0-0-0-0-0-0---|-0----|

Chorus
  Gtr III
  S S S S S     S     S     S     S     S     S     S     S S S S
|-----------------------------------------------------------------|
|-----------------------------------------------------------------|
|-----------------------------------------------------------------|
|-8-8-8-8-8pb10-8pb10-8pb10-8pb10-8pb10-8pb10-8pb10-8pb10-8-8-8-8-|
|-----------------------------------------------------------------|
|-----------------------------------------------------------------|
|
| Gtr IV
| E   E   E           E           E           E           E   E
|-----------------------------------------------------------------|
|-----------------------------------------------------------------|
|-----------------------------------------------------------------|
|-1---1---1-----------1-----------1-----------1-----------1---1---|
|-1---1---1-----------1-----------1-----------1-----------1---1---|
|-1---1---1-----------1-----------1-----------1-----------1---1---|


  S S S S S S S S S S S S S S S S
|---------------------------------|
|---------------------------------|
|---------------------------------|
|-7-7-7-7-7-7-7-7-7-7-7-7-7-7-7-7-|
|---------------------------------|
|---------------------------------|
|
| E   E   E   E   E   E   E   E
|---------------------------------|
|---------------------------------|
|-3---3---3---3---3---3---3---3---|
|-3---3---3---3---3---3---3---3---|
|-1---1---1---1---1---1---1---1---|
|---------------------------------|


   S  S  S  S  S      S      S      S      S      S      S      S      S  S  S  S
|---------------------------------------------------------------------------------|
|---------------------------------------------------------------------------------|
|---------------------------------------------------------------------------------|
|-10-10-10-10-10pb12-10pb12-10pb12-10pb12-10pb12-10pb12-10pb12-10pb12-10-10-10-10-|
|---------------------------------------------------------------------------------|
|---------------------------------------------------------------------------------|
|
|  E     E     E             E             E             E             E     E
|---------------------------------------------------------------------------------|
|---------------------------------------------------------------------------------|
|---------------------------------------------------------------------------------|
|--1-----1-----1-------------1-------------1-------------1-------------1-----1----|
|--1-----1-----1-------------1-------------1-------------1-------------1-----1----|
|--1-----1-----1-------------1-------------1-------------1-------------1-----1----|


  S S S S S     S     S     S     S     S     S     S     S S S S
|-----------------------------------------------------------------|
|-----------------------------------------------------------------|
|-----------------------------------------------------------------|
|-8-8-8-8-8pb10-8pb10-8pb10-8pb10-8pb10-8pb10-8pb10-8pb10-8-8-8-8-|
|-----------------------------------------------------------------|
|-----------------------------------------------------------------|
|
| E   E   E           E           E           E           E   E
|-----------------------------------------------------------------|
|-----------------------------------------------------------------|
|-3---3---3-----------3-----------3-----------3-----------3---3---|
|-3---3---3-----------3-----------3-----------3-----------3---3---|
|-1---1---1-----------1-----------1-----------1-----------1---1---|
|-----------------------------------------------------------------|


  S S S S S     S     S     S     S     S     S     S     S S S S
|-----------------------------------------------------------------|
|-----------------------------------------------------------------|
|-----------------------------------------------------------------|
|-8-8-8-8-8pb10-8pb10-8pb10-8pb10-8pb10-8pb10-8pb10-8pb10-8-8-8-8-|
|-----------------------------------------------------------------|
|-----------------------------------------------------------------|
|
| E   E   E           E           E           E           E   E
|-----------------------------------------------------------------|
|-----------------------------------------------------------------|
|-----------------------------------------------------------------|
|-1---1---1-----------1-----------1-----------1-----------1---1---|
|-1---1---1-----------1-----------1-----------1-----------1---1---|
|-1---1---1-----------1-----------1-----------1-----------1---1---|


  S S S S S S S S S S S S S S S S
|---------------------------------|
|---------------------------------|
|---------------------------------|
|-7-7-7-7-7-7-7-7-7-7-7-7-7-7-7-7-|
|---------------------------------|
|---------------------------------|
|
| E   E   E   E   E   E   E   E
|---------------------------------|
|---------------------------------|
|-3---3---3---3---3---3---3---3---|
|-3---3---3---3---3---3---3---3---|
|-1---1---1---1---1---1---1---1---|
|---------------------------------|


   S  S  S  S  S      S      S      S      S      S      S      S      S  S  S  S
|---------------------------------------------------------------------------------|
|---------------------------------------------------------------------------------|
|---------------------------------------------------------------------------------|
|-10-10-10-10-10pb12-10pb12-10pb12-10pb12-10pb12-10pb12-10pb12-10pb12-10-10-10-10-|
|---------------------------------------------------------------------------------|
|---------------------------------------------------------------------------------|
|
|  E     E     E             E             E             E             E     E
|---------------------------------------------------------------------------------|
|---------------------------------------------------------------------------------|
|---------------------------------------------------------------------------------|
|--1-----1-----1-------------1-------------1-------------1-------------1-----1----|
|--1-----1-----1-------------1-------------1-------------1-------------1-----1----|
|--1-----1-----1-------------1-------------1-------------1-------------1-----1----|


  S S S S S S S S S S S S S S S S
|---------------------------------|
|---------------------------------|
|---------------------------------|
|-8-8-8-8-8-8-8-8-8-8-8-8-8-8-8-8-|
|---------------------------------|
|---------------------------------|
|
| E   E   E   E   E   E   E   E
|---------------------------------|
|---------------------------------|
|-3---3---3---3---3---3---3---3---|
|-3---3---3---3---3---3---3---3---|
|-1---1---1---1---1---1---1---1---|
|---------------------------------|

Outro
  W          +W           H    H      +W
|----------|------------|-----------|--------|
|----------|------------|-----------|--------|
|----------|------------|-3---------|--------|
|-0--------|-(0)--------|-x----0----|-(0)----|
|-0--------|-(0)--------|-1----0----|-(0)----|
|-0--------|-(0)--------|------0----|-(0)----|
|
| W          +W           H    H      +W
|----------|------------|-----------|--------|
|----------|------------|-----------|--------|
|----------|------------|-----------|--------|
|-0--------|-(0)--------|-1----0----|-(0)----|
|-0--------|-(0)--------|-1----0----|-(0)----|
|-0--------|-(0)--------|-1----0----|-(0)----|


  W            W          +W            W
|------------|----------|------------|--------*|
|------------|----------|------------|--------*|
|------------|----------|------------|--------*|
|------------|----------|------------|--0-----*|
|------------|----------|------------|--0-----*|
|-4b6--------|-0--------|-(0)--------|-(0)----*|
|
| W            W          +W            W
|------------|----------|------------|--------*|
|------------|----------|------------|--------*|
|------------|----------|------------|--------*|
|------------|----------|------------|--0-----*|
|------------|----------|------------|--0-----*|
|-1b3--------|-0--------|-(0)--------|-(0)----*|


Duration Legend
---------------
W - whole; H - half; Q - quarter; E - 8th; S - 16th; T - 32nd; X - 64th; a - acciaccatura
+ - note tied to previous; . - note dotted; .. - note double dotted
Uncapitalized letters represent notes that are staccato (1/2 duration)
Irregular groupings are notated above the duration line
Duration letters will always appear directly above the note/fret number it represents the
duration for.  Duration letters with no fret number below them represent rests.  Multi-
bar rests are notated in the form Wxn, where n is the number of bars to rest for.  Low
melody durations appear below the staff

Tablature Legend
----------------
 h   - hammer-on
 p   - pull-off
 b   - bend
 pb  - pre-bend
 r   - bend release (if no number after the r, then release immediately)
 /\  - slide into or out of (from/to "nowhere")
 s   - legato slide
 S   - shift slide
  - natural harmonic
[n]  - artificial harmonic
n(n) - tapped harmonic
 ~   - vibrato
 tr  - trill
 T   - tap
 TP  - trem. picking
 PM  - palm muting
\n/  - tremolo bar dip; n = amount to dip
 \n  - tremolo bar down
 n/  - tremolo bar up
/n\  - tremolo bar inverted dip
 =   - hold bend; also acts as connecting device for hammers/pulls
 <>  - volume swell (louder/softer)
 x   - on rhythm slash represents muted slash
 o   - on rhythm slash represents single note slash

Misc Legend
-----------
 |  - bar
||  - double bar
||o - repeat start
o|| - repeat end
*|  - double bar (ending)
 :  - bar (freetime)
 $  - Segno
 &  - Coda
Tempo markers -  = BPM(8/16=s8/s16), where s8 = swing 8ths, s16 = swing 16ths
Добавлено: 29.07.2013
Другие материалы по этой песне:

Страница создана 27.06.2013
http://primanota.ru/misc-unsigned-bands/exordium-to-a-long-history-chords.htm
Привет, Гость.
Предлагаем пройти революционный курс по гитаре.
Подарок от PrimaNota.Ru, забирай!