PrimaNota.ru - самый крупный в мире бесплатный архив песенных текстов, аккордов, табулатур и нот


Misc Unsigned Bands - Fable Iii Soundtrack - Reaver Mansion - таба

Регистрация Запомнить меня
Войти через:  Facebook Google Twitter Vk Yandex Mail.ru

Misc Unsigned Bands - Fable Iii Soundtrack - Reaver Mansion - таба

Печатать
Просмотров: 93
Reaver Mansion Intro (Fable III OST)

See here for a video of the song being played: http://youtu.be/BHcgvBHt3mw


E|----------------------------------------------------------------|
B|---------0----1----0--------------------------------------------|
G|----2---------2---------2----1---------1----2-------------------|
D|--------------2-------------------4-----------------------------|
A|--------------0-----------------------------0----3----2----0----|
E|-----------------------------0----------------------------------|



E|----0----3----3----2----0---------0-------------------|
B|---------1---------3---------3----1-------------------|
G|---------0---------2--------------2-------------------|
D|-------------------0----------------------------------|
A|---------3------------------------0----3----2----0----|
E|------------------------------------------------------|



E|----5----5----5----3----3----0-------------------|
B|---------1---------0---------1----3----1----3----|
G|---------2---------0---------0--------------2----|
D|--------------------------------------------0----|
A|---------0-------------------3-------------------|
E|-------------------3-----------------------------|



E|----------------------------------------------------------------|
B|---------0----1----0--------------------------------------------|
G|----2---------2---------2----1---------1----2-------------------|
D|--------------2-------------------4-----------------------------|
A|--------------0-----------------------------0----3----2----0----|
E|-----------------------------0----------------------------------|

x2


E|----3----3--------------0----1----3--------------0------------------------0--------------|
B|---------1----1----3-----------------------------1---------0----1----3-------------------|
G|---------0-----------------------------0----0----2----2------------------------2----2----|
D|-----------------------------------------------------------------------------------------|
A|---------3---------------------------------------0---------------------------------------|
E|----------------------------------3---------------------------------------0--------------|



E|----1----3----1----0---------0----1----0-------------------0------------------------|
B|----3-------------------3----1--------------3----1----3---------3----1----3----0----|
G|----2------------------------2------------------------2------------------------1----|
D|----0-------------------------------------------------3-----------------------------|
A|-----------------------------0------------------------------------------------------|
E|-------------------------------------------------------------------------------0----|



E|----3----3--------------0----1----3--------------0------------------------0--------------|
B|---------1----1----3-------------------0----0----1---------0----1----3---------0----0----|
G|---------0-----------------------------0----0----2----2------------------------2----2----|
D|------------------------3----0----2------------------------3----0----2----3----2----1----|
A|---------3----0----2-------------------2----2----0----2------------------------2----2----|
E|-----------3----------------------------------------0------------------------------------|



E|----1----3----1----0---------0----1----0-------------------0------------------------|
B|----3-------------------3----1--------------3----1----3---------3----1----3--(3)s5--|
G|----2------------------------2------------------------2-----------------------------|
D|----0-------------------------------------------------3-----------------------------|
A|-----------------------------0------------------------------------------------------|
E|-------------------------------------------------------------------------------0----|


E|--------------0-----------------------------|
B|----1----3----1----3----1----0--------------|
G|--------------2--------------1----2----1----|
D|--------------------------------------------|
A|--------------0-----------------------------|
E|-----------------------------0--------------|



E|-------------------------------------------------0----------------------------------0----|
B|-------------------0-------------------3----3---------3----0----1------------------------|
G|----2-------------------1-------------------1------------------------1----2--------------|
D|----2----2-------------------2--------------2--------------------------------------------|
A|----0---------0------------------------------------------------------0---------0---------|
E|------------------------0---------0---------0--------------------------------------------|



E|----0----0----1----1p0--------------------------------------------------------------------------|
B|----1---------0-----------3----1----0----1----3----1----0-------------------3---------0---------|
G|----2---------1---------------------1------------------------2----1-----------------------------|
D|----3-------------------------------------------------------------2----2---------2---------2----|
A|------------------------------------------------------------------------------------------------|
E|--------------0---------------------0-----------------------------0-----------------------------|





E|-------------------------------------------------0----------------------------------0----|
B|----1--------------3----0--------------3----3---------3----0----1------------------------|
G|----2----2--------------1----1--------------1------------------------1----2--------------|
D|----2-------------------2-------------------2--------------------------------------------|
A|----0---------0------------------------------------------------------0---------0---------|
E|------------------------0---------0---------0--------------------------------------------|



E|----5----5----1----1p0------------------------------------------|
B|----3---------3-----------3----1----0h1p1h1p0-------------------|
G|----5---------2---------------------1h2p1h2p1---------1----2----|
D|----3---------0----------------------------------4--------------|
A|-----------------------------------------------------------0----|
E|------------------------------------0---------------------------|



E|--------------------------------------------------------------------------|
B|--------0-----0--------------------------0--1-----1-----------------------|
G|--1--2--------------1-----1-----1-----2-----------------2-----2-----2-----|
D|--------------------------------------------------------------------------|
A|--------------------------------------0--------0-----0-----0-----0-----0--|
E|--0--------0-----0-----0-----0-----0--------------------------------------|



E|--------------------------------------------0-----0-----------------------|
B|--0--1--3-----3-----0-----0-----0-----1--3--1-----1-----1-----1-----1-----|
G|--1--2--4-----4-----1-----1-----1-----2--4--------------2-----2-----2-----|
D|--------------------------------------------------------------------------|
A|--------------------------------------0--------0-----0-----0-----0-----0--|
E|--0--------0-----0-----0-----0-----0--------------------------------------|



E|-----0--1-----1-----1-----0------------------0-----0-----------------------|
B|--3--3--3-----3-----3-----3-----3------1--3--1-----1-----1-----1-----1-----|
G|--3-----------------------------3------2--4--------------2-----2-----2-----|
D|---------------------------------------------------------------------------|
A|--1--------1-----1-----1-----1-----1---0--------0-----0-----0-----0-----0--|
E|---------------------------------------------------------------------------|


E|-------------------------------------|
B|--0--1--3-----3-----0-----0-----0----|
G|--1--2--4-----4-----1-----1-----1----|
D|-------------------------------------|
A|-------------------------------------|
E|--0--------0-----0-----0-----0-----0-|



E|--------------------------------------------------0-----------------------------------------------|
B|--------------0-----------1-----------3-----------------1-----3-----------------------------0-----|
G|--2-----------------1-----------2-----------4-----------------------4-----------2-----1-----------|
D|--------2--------------------------------0-----0-----------------0-----0--3-----------------------|
A|-----0-----0-----------------0-----0-----------------0-----0--------------------------------------|
E|-----------------0-----0-----------------------------------------------------1-----1-----0-----0--|

x2


E|-----------------------------------------------------------------------------|
B|-------------------0-------------------0-------------------------------------|
G|----2-------------------1-------------------2--------------------------------|
D|----2----2-------------------2--------------2--------------------------------|
A|----0---------0-----------------------------0-------3------2-----------0-----|
E|------------------------0---------0------------------------------------------|

http://www.guitartabcreator.com
Добавлено: 23.10.2013
Другие материалы по этой песне:
  • Аккорды и текст

Страница создана 23.10.2013
http://primanota.ru/misc-unsigned-bands/fable-iii-soundtrack-reaver-mansion-chords.htm
Привет, Гость.
Предлагаем пройти революционный курс по гитаре.
Подарок от PrimaNota.Ru, забирай!