PrimaNota.ru - самый крупный в мире бесплатный архив песенных текстов, аккордов, табулатур и нот


Misc Unsigned Bands - Fallen Edge - Break The Waves - таба

Регистрация Запомнить меня
Войти через:  Facebook Google Twitter Vk Yandex Mail.ru

Misc Unsigned Bands - Fallen Edge - Break The Waves - таба

Печатать
Просмотров: 46
-------------------------------------------------------------------------------
                             BREAK THE WAVES - Fallen Edge
-------------------------------------------------------------------------------
Tabbed by:Fallen_Thief
E-mail:fallenedge1@hotmail.co.uk

Tuning: Drop D
Signature:12/8
Tempo:192bpm

Intro:
Guitar 1
e|---------------------------------------------------------------------------|
B|---------------------------------------------------------------------------|
G|7-7--7--7-7--7--7--7-7--7--7-7--7--7--7-7--7--7-7--7--7--7-7--7--7-7-------|
D|x-x--x--x-x--x--x--x-x--x--x-x--x--x--x-x--x--x-x--x--x--x-x--x--x-x-------|
A|5-5--5--5-5--5--5--5-5--5--5-5--5--5--5-5--5--5-5--5--5--5-5--5--5-5-------|
D|---------------------------------------------------------------------------|

Guitar 2
e|---------------------------------------------------------------------------|
B|---------------------------------------------------------------------------|
G|1414-14-1414-14-14-1414-14-1414-14-14-1414-14-1414-14-14-1414-14-1414------|
D|x-x--x--x-x--x--x--x-x--x--x-x--x--x--x-x--x--x-x--x--x--x-x--x--x-x-------|
A|1212-12-1212-12-12-1212-12-1212-12-12-1212-12-1212-12-12-1212-12-1212------|
D|---------------------------------------------------------------------------|

Chorus
Guitar 1
e|---------------------------------------------------------------------------|
B|---------------------------------------------------------------------------|
G|14---------------14---------------14---------------14----------------------|
D|----12--11h12-12-----12--11h12-12-----12--11h12-12-----12--11h12-12--------|
A|---------------------------------------------------------------------------|
D|---------------------------------------------------------------------------|

Guitar 2
e|---------------------------------------------------------------------------|
B|---------------------------------------------------------------------------|
G|1111-11-1111-11-11-1111-11-1111-11-11-7-7--7--7-7--7--7--7-7--7--7-7--7--7-|
D|1212-12-1212-12-12-1212-12-1212-12-12-5-5--5--5-5--5--5--5-5--5--5-5--5--5-|
A|9-9--9--9-9--9--9--9-9--9--9-9--9--9--5-5--5--5-5--5--5--5-5--5--5-5--5--5-|
D|9-9--9--9-9--9--9--9-9--9--9-9--9--9--5-5--5--5-5--5--5--5-5--5--5-5--5--5-|

Guitar 1
e|---------------------------------------------------------------------------|
B|-------------------------------------------------------15--14h15-----------|
G|14---------------14---------------14---------------14------------14--------| x2
D|----12--11h12-12-----12--11h12-12-----12--11h12-12-------------------------|
A|---------------------------------------------------------------------------|
D|---------------------------------------------------------------------------|

Guitar 2
e|---------------------------------------------------------------------------|
B|---------------------------------------------------------------------------|
G|1111-11-1111-11-11-1111-11-1111-11-11-9-9--9--9-9--9--9--9-9--9--9-9--9--9-| x2
D|1212-12-1212-12-12-1212-12-1212-12-12-7-7--7--7-7--7--7--7-7--7--7-7--7--7-|
A|9-9--9--9-9--9--9--9-9--9--9-9--9--9--7-7--7--7-7--7--7--7-7--7--7-7--7--7-|
D|9-9--9--9-9--9--9--9-9--9--9-9--9--9--7-7--7--7-7--7--7--7-7--7--7-7--7--7-|

Fill Riff
Guitar 1
e|---------------------------------------------------------------------------|
B|---------------------------------------------------------------------------|
G|---------------------------------------------------------------------------|
D|0-0--0--0-0--0--0--0-0--0--0-0----5+--0-0--0--0-0--0--0--0-0--0--0-0-------|
A|0-0--0--0-0--0--0--0-0--0--0-0--5+----0-0--0--0-0--0--0--0-0--0--0-0-------|
D|0-0--0--0-0--0--0--0-0--0--0-0--------0-0--0--0-0--0--0--0-0--0--0-0-------|

Guitar 2
e|---------------------------------------------------------------------------|
B|---------------------------------------------------------------------------|
G|---------------------------------------------------------------------------|
D|0-0--0--0-0--0--0--0-0--0--0-0--0-0---0-0--0--0-0--0--0--0-0--0--0-0-------|
A|0-0--0--0-0--0--0--0-0--0--0-0--0-0---0-0--0--0-0--0--0--0-0--0--0-0-------|
D|0-0--0--0-0--0--0--0-0--0--0-0--0-0---0-0--0--0-0--0--0--0-0--0--0-0-------|

Verse
Guitar 1 (Clean)
e|---------------------------------------------------------------------------|
B|---------------------------------------------------------------------------|
G|11-----------------------------------7-------------------------------------|
D|12-----------------------------------5-------------------------------------|
A|9------------------------------------5-------------------------------------|
D|9------------------------------------5-------------------------------------|

Guitar 2 (Clean)
e|----------------------------5------------------------------------5---------|
B|---------------------------------------------------------------------------|
G|-----7----6h7--7--------7------6h7--------7----6h7--7-------7-------6h7----|
D|9--9----9---------9--9----9----------5--5----5---------5--5----5-----------|
A|---------------------------------------------------------------------------|
D|---------------------------------------------------------------------------|

Guitar 1 (Clean)
e|---------------------------------------------------------------------------|
B|---------------------------------------------------------------------------|
G|11-----------------------------------9-------------------------------------|
D|12-----------------------------------7-------------------------------------|
A|9------------------------------------7-------------------------------------|
D|9------------------------------------7-------------------------------------|

Guitar 2 (Clean)
e|----------------------------5----------------------------------------------|
B|---------------------------------------------------------------------------|
G|-----7----6h7--7--------7------6h7--------7----6h7--7-------7----9--7--6---|
D|9--9----9---------9--9----9------------------------------------------------|
A|-------------------------------------0--0----0---------0--0----0-----------|
D|---------------------------------------------------------------------------|

Guitar 1 (Clean)
e|---------------------------------------------------------------------------|
B|---------------------------------------------------------------------------|
G|11-----------------------------------7-------------------------------------|
D|12-----------------------------------5-------------------------------------|
A|9------------------------------------5-------------------------------------|
D|9------------------------------------5-------------------------------------|

Guitar 2 (Overdrive)
e|---------------------------------------------------------------------------|
B|--------------------1010------------------------1010-----------------------|
G|---77766777777---777----6677---77766777777---777----6677-------------------|
D|999-----------999-----------555-----------555------------------------------|
A|---------------------------------------------------------------------------|
D|---------------------------------------------------------------------------|

Guitar 1 (Clean)
e|---------------------------------------------------------------------------|
B|---------------------------------------------------------------------------|
G|11-----------------------------------9-------------------------------------|
D|12-----------------------------------7-------------------------------------|
A|9------------------------------------7-------------------------------------|
D|9------------------------------------7-------------------------------------|

Guitar 2 (Overdrive)
e|---------------------------------------------------------------------------|
B|--------------------1010---------------------------------------------------|
G|---77766777777---777----6677---77766777777---777997766---------------------|
D|999-----------999-----------777-----------777------------------------------|
A|---------------------------------------------------------------------------|
D|---------------------------------------------------------------------------|

Pre Chorus
Guitar 1
e|---------------------------------------------------------------------------|
B|---------------------------------------------------------------------------|
G|---------------------------------------------------------------------------|
D|5-5--5--5-5--5--5--5-5--5--5-5--5--5--7-7--7--7-7--7--7--7-7--7--7-7--7--7-|
A|5-5--5--5-5--5--5--5-5--5--5-5--5--5--5-5--5--5-5--5--5--5-5--5--5-5--5--5-|
D|5-5--5--5-5--5--5--5-5--5--5-5--5--5--4-4--4--4-4--4--4--4-4--4--4-4--4--4-|

Guitar 2
e|---------------------------------------------------------------------------|
B|------------10----------------7p5------------------------------------------|
G|6-----7------------7p6---7------------7------9-----------------------------|
D|---------------------------------------------------------------------------|
A|---------------------------------------------------------------------------|
D|---------------------------------------------------------------------------|

Guitar 1
e|---------------------------------------------------------------------------|
B|---------------------------------------------------------------------------|
G|---------------------------------------------------------------------------|
D|5-5--5--5-5--5--5--5-5--5--5-5--5--5--7-7--7--7-7--7--7--7-7--7--7-7--7--7-|
A|5-5--5--5-5--5--5--5-5--5--5-5--5--5--7-7--7--7-7--7--7--7-7--7--7-7--7--7-|
D|5-5--5--5-5--5--5--5-5--5--5-5--5--5--7-7--7--7-7--7--7--7-7--7--7-7--7--7-|

Guitar 2
e|---------------------------------------------------------------------------|
B|------------10----------------7p5------------------------------------------|
G|6-----7------------7p6---7-------------------------------------------------|
D|---------------------------------------------------------------------------|
A|---------------------------------------------------------------------------|
D|---------------------------------------------------------------------------|

Chorus
Guitar 1
e|---------------------------------------------------------------------------|
B|---------------------------------------------------------------------------|
G|14---------------14---------------14---------------14----------------------|
D|----12--11h12-12-----12--11h12-12-----12--11h12-12-----12--11h12-12--------|
A|---------------------------------------------------------------------------|
D|---------------------------------------------------------------------------|

Guitar 2
e|---------------------------------------------------------------------------|
B|---------------------------------------------------------------------------|
G|1111-11-1111-11-11-1111-11-1111-11-11-7-7--7--7-7--7--7--7-7--7--7-7--7--7-|
D|1212-12-1212-12-12-1212-12-1212-12-12-5-5--5--5-5--5--5--5-5--5--5-5--5--5-|
A|9-9--9--9-9--9--9--9-9--9--9-9--9--9--5-5--5--5-5--5--5--5-5--5--5-5--5--5-|
D|9-9--9--9-9--9--9--9-9--9--9-9--9--9--5-5--5--5-5--5--5--5-5--5--5-5--5--5-|

Guitar 1
e|---------------------------------------------------------------------------|
B|-------------------------------------------------------15--14h15-----------|
G|14---------------14---------------14---------------14------------14--------| x2
D|----12--11h12-12-----12--11h12-12-----12--11h12-12-------------------------|
A|---------------------------------------------------------------------------|
D|---------------------------------------------------------------------------|

Guitar 2
e|---------------------------------------------------------------------------|
B|---------------------------------------------------------------------------|
G|1111-11-1111-11-11-1111-11-1111-11-11-9-9--9--9-9--9--9--9-9--9--9-9--9--9-| x2
D|1212-12-1212-12-12-1212-12-1212-12-12-7-7--7--7-7--7--7--7-7--7--7-7--7--7-|
A|9-9--9--9-9--9--9--9-9--9--9-9--9--9--7-7--7--7-7--7--7--7-7--7--7-7--7--7-|
D|9-9--9--9-9--9--9--9-9--9--9-9--9--9--7-7--7--7-7--7--7--7-7--7--7-7--7--7-|

Harmony Section
Guitar 1
e|---------------------------------------------------------------------------|
B|---------------------------------------------------------------------------|
G|---------7-6------------9-7------------11-9--------------------------------|
D|-------------7--------------11--------------12-----------------------------|
A|5-5--5--5------7-7--7--7------9-9--9--9------------------------1212--------|
D|5-5--5--5------7-7--7--7------9-9--9--9--------11-11-11-11-1212----12121111|

Guitar 2
e|---------------------------------------------------------------------------|
B|---------------------------------------------------------------------------|
G|---------------------------------------------------------------------------|
D|5-5--5--5-5-5-5--7-7--7--7-7-7-7--9-9--9--9-9-9-9--------------------------|
A|5-5--5--5-5-5-5--7-7--7--7-7-7-7--9-9--9--9-9-9-9-------------1212---------|
D|5-5--5--5-5-5-5--7-7--7--7-7-7-7--9-9--9--9-9-9-9-111111111212----12121111-|

Guitar 1
e|---------------------------------------------------------------------------|
B|---------------------------------------------------------------------------|
G|---------7-6------------9-7------------11-9--------------------------------|
D|-------------7--------------11--------------12-----------------------------|
A|5-5--5--5------7-7--7--7------9-9--9--9------------------------1212--------|
D|5-5--5--5------7-7--7--7------9-9--9--9--------11-11-11-11-1212----12121111|

Guitar 2
e|---------------------------------------------------------------------------|
B|---------------------------------------------------------------------------|
G|---------------------------------------------------------------------------|
D|5-5--5--5-5-5-5--7-7--7--7-7-7-7--9-9--9--9-9-9-9--------------------------|
A|5-5--5--5-5-5-5--7-7--7--7-7-7-7--9-9--9--9-9-9-9-------------1212---------|
D|5-5--5--5-5-5-5--7-7--7--7-7-7-7--9-9--9--9-9-9-9-111111111212----12121111-|

Guitar 1
e|---------------------------------------------------------------------------|
B|---------------------------------------------------------------------------|
G|---------------------------------------------------------------------------|
D|---------9-7------------11-9-------------12-11-----------------------------|
A|5-5--5--5----9-7-7--7--7-----12-9-9--9--9------14-------------1212---------|
D|5-5--5--5------7-7--7--7--------9-9--9--9---------111111111212----12121111-|

Guitar 2
e|--------------------------------------------------------------15p14--------|
B|-------------------------------------------------------------------15------|
G|---------7-6-----------9-7------------11-9------------11h12h14-------14----|
D|------------7-------------11--------------12-11h12h14-----------------17p16|
A|5-5--5--5-----7-7--7--7------9-9--9--9-------------------------------------|
D|5-5--5--5-----7-7--7--7------9-9--9--9-------------------------------------|

Guitar 1
e|---------------------------------------------------------------------------|
B|---------------------------------------------------------------------------|
G|---------------------------------------------------------------------------|
D|---------9-7------------11-9-------------12-11----0-------000000---0-------|
A|5-5--5--5----9-7-7--7--7-----12-9-9--9--9------14-0-hold--000000---0-hold--|
D|5-5--5--5------7-7--7--7--------9-9--9--9---------0-------000000---0-------|
                                                                                         
                pm....
Guitar 2
e|---------------------------------------------------------------------------|
B|---------------------------------------------------------------------------|
G|---------7-6------------9-7-------------11-9-------------------------------|
D|-------------7--------------11---------------12---0-------000000---0-------|
A|5-5--5--5------7-7--7--7-------9-9--9--9----------0-hold--000000---0-hold--|
D|5-5--5--5------7-7--7--7-------9-9--9--9----------0-------000000---0-------|
                                                                                         
                pm....
Middle Section
Guitar 1
e|---------------------------------------------------------------------------|
B|---------------------------------------------------------------------------|
G|---------------------------------------------------------------------------|
D|---------------------------------------------------------------------------|
A|---------------------------------------------------------------------------|
D|---------------------------------------------------------------------------|

Guitar 2
e|---------------------------------------------------------------------------|
B|10-----------------------10------------------------------------------------|
G|-------7-----6---7---7----------7-----6---7---7----------------------------|
D|---0-0---0-0---0---0---0----0-0---0-0---0---0---0--------------------------|
A|---------------------------------------------------------------------------|
D|---------------------------------------------------------------------------|

Guitar 1
e|---------------------------------------------------------------------------|
B|---------------------------------------------------------------------------|
G|7-7--7--7-7--7--7--7-7--7--7-7--7--7---------------------------------------|
D|5-5--5--5-5--5--5--5-5--5--5-5--5--5---------------------------------------|
A|5-5--5--5-5--5--5--5-5--5--5-5--5--5---------------------------------------|
D|5-5--5--5-5--5--5--5-5--5--5-5--5--5---------------------------------------|

Guitar 2
e|---------------------------------------------------------------------------|
B|---------------------------------------------------------------------------|
G|7-7--7--7-7--7--7--7-7--7--7-7--7--7---------------------------------------|
D|5-5--5--5-5--5--5--5-5--5--5-5--5--5---------------------------------------|
A|5-5--5--5-5--5--5--5-5--5--5-5--5--5---------------------------------------|
D|5-5--5--5-5--5--5--5-5--5--5-5--5--5---------------------------------------|

Guitar 1
e|---------------------------------------------------------------------------|
B|---------------------------------------------------------------------------|
G|---------------------------------------------------------------------------|
D|---------------------------------------------------------------------------|
A|---------------------------------------------------------------------------|
D|---------------------------------------------------------------------------|

Guitar 2
e|---------------------------------------------------------------------------|
B|10-----------------------10------------------------------------------------|
G|-------7-----6---7---7----------7-----6---7---7----------------------------|
D|---0-0---0-0---0---0---0----0-0---0-0---0---0---0--------------------------|
A|---------------------------------------------------------------------------|
D|---------------------------------------------------------------------------|

Guitar 1
e|---------------------------------------------------------------------------|
B|---------------------------------------------------------------------------|
G|9-9--9--9-9--9--9--9-9--9--9-9--9--9---------------------------------------|
D|7-7--7--7-7--7--7--7-7--7--7-7--7--7---------------------------------------|
A|7-7--7--7-7--7--7--7-7--7--7-7--7--7---------------------------------------|
D|7-7--7--7-7--7--7--7-7--7--7-7--7--7---------------------------------------|

Guitar 2
e|---------------------------------------------------------------------------|
B|---------------------------------------------------------------------------|
G|9-9--9--9-9--9--9--9-9--9--9-9--9--9---------------------------------------|
D|7-7--7--7-7--7--7--7-7--7--7-7--7--7---------------------------------------|
A|7-7--7--7-7--7--7--7-7--7--7-7--7--7---------------------------------------|
D|7-7--7--7-7--7--7--7-7--7--7-7--7--7---------------------------------------|

Guitar 1
e|---------------------------------------------------------------------------|
B|---------------------------------------------------------------------------|
G|14---------------------------14--------------------------------------------|
D|-------12-----11---12---12----------12-----11---12---12--------------------|
A|---------------------------------------------------------------------------|
D|---9-9----9-9----9----9----9----9-9----9-9----9----9----9------------------|

Guitar 2
e|---------------------------------------------------------------------------|
B|---------------------------------------------------------------------------|
G|14---------------------------14--------------------------------------------|
D|-------12-----11---12---12----------12-----11---12---12--------------------|
A|---------------------------------------------------------------------------|
D|---9-9----9-9----9----9----9----9-9----9-9----9----9----9------------------|

Guitar 1
e|---------------------------------------------------------------------------|
B|---------------------------------------------------------------------------|
G|7-7--7--7-7--7--7--7-7--7--7-7--7--7---------------------------------------|
D|5-5--5--5-5--5--5--5-5--5--5-5--5--5---------------------------------------|
A|5-5--5--5-5--5--5--5-5--5--5-5--5--5---------------------------------------|
D|5-5--5--5-5--5--5--5-5--5--5-5--5--5---------------------------------------|

Guitar 2
e|---------------------------------------------------------------------------|
B|---------------------------------------------------------------------------|
G|7-7--7--7-7--7--7--7-7--7--7-7--7--7---------------------------------------|
D|5-5--5--5-5--5--5--5-5--5--5-5--5--5---------------------------------------|
A|5-5--5--5-5--5--5--5-5--5--5-5--5--5---------------------------------------|
D|5-5--5--5-5--5--5--5-5--5--5-5--5--5---------------------------------------|

Guitar 1
e|---------------------------------------------------------------------------|
B|---------------------------------------------------------------------------|
G|14---------------------------14--------------------------------------------|
D|-------12-----11---12---12----------12-----11---12---12--------------------|
A|---------------------------------------------------------------------------|
D|---9-9----9-9----9----9----9----9-9----9-9----9----9----9------------------|

Guitar 2
e|---------------------------------------------------------------------------|
B|---------------------------------------------------------------------------|
G|14---------------------------14--------------------------------------------|
D|-------12-----11---12---12----------12-----11---12---12--------------------|
A|---------------------------------------------------------------------------|
D|---9-9----9-9----9----9----9----9-9----9-9----9----9----9------------------|

Guitar 1
e|---------------------------------------------------------------------------|
B|---------------------------------------------------------------------------|
G|9-9--9--9-9--9--9--9-9--9--9-9--9--9---------------------------------------|
D|7-7--7--7-7--7--7--7-7--7--7-7--7--7---------------------------------------|
A|7-7--7--7-7--7--7--7-7--7--7-7--7--7---------------------------------------|
D|7-7--7--7-7--7--7--7-7--7--7-7--7--7---------------------------------------|

Guitar 2
e|---------------------------------------------------------------------------|
B|---------------------------------------------------------------------------|
G|9-9--9--9-9--9--9--9-9--9--9-9--9--9---------------------------------------|
D|7-7--7--7-7--7--7--7-7--7--7-7--7--7---------------------------------------|
A|7-7--7--7-7--7--7--7-7--7--7-7--7--7---------------------------------------|
D|7-7--7--7-7--7--7--7-7--7--7-7--7--7---------------------------------------|

Intro (Reprise):
Guitar 1
e|---------------------------------------------------------------------------|
B|---------------------------------------------------------------------------|
G|7-7--7--7-7--7--7--7-7--7--7-7--7--7--7-7--7--7-7--7--7--7-7--7--7-7-------|
D|x-x--x--x-x--x--x--x-x--x--x-x--x--x--x-x--x--x-x--x--x--x-x--x--x-x-------|
A|5-5--5--5-5--5--5--5-5--5--5-5--5--5--5-5--5--5-5--5--5--5-5--5--5-5-------|
D|---------------------------------------------------------------------------|

Guitar 2
e|---------------------------------------------------------------------------|
B|---------------------------------------------------------------------------|
G|1414-14-1414-14-14-1414-14-1414-14-14-1414-14-1414-14-14-1414-14-1414------|
D|x-x--x--x-x--x--x--x-x--x--x-x--x--x--x-x--x--x-x--x--x--x-x--x--x-x-------|
A|1212-12-1212-12-12-1212-12-1212-12-12-1212-12-1212-12-12-1212-12-1212------|
D|---------------------------------------------------------------------------|

Chorus
Guitar 1
e|---------------------------------------------------------------------------|
B|---------------------------------------------------------------------------|
G|14---------------14---------------14---------------14----------------------|
D|----12--11h12-12-----12--11h12-12-----12--11h12-12-----12--11h12-12--------|
A|---------------------------------------------------------------------------|
D|---------------------------------------------------------------------------|

Guitar 2
e|---------------------------------------------------------------------------|
B|---------------------------------------------------------------------------|
G|1111-11-1111-11-11-1111-11-1111-11-11-7-7--7--7-7--7--7--7-7--7--7-7--7--7-|
D|1212-12-1212-12-12-1212-12-1212-12-12-5-5--5--5-5--5--5--5-5--5--5-5--5--5-|
A|9-9--9--9-9--9--9--9-9--9--9-9--9--9--5-5--5--5-5--5--5--5-5--5--5-5--5--5-|
D|9-9--9--9-9--9--9--9-9--9--9-9--9--9--5-5--5--5-5--5--5--5-5--5--5-5--5--5-|

Guitar 1
e|---------------------------------------------------------------------------|
B|-------------------------------------------------------15--14h15-----------|
G|14---------------14---------------14---------------14------------14--------| x2
D|----12--11h12-12-----12--11h12-12-----12--11h12-12-------------------------|
A|---------------------------------------------------------------------------|
D|---------------------------------------------------------------------------|

Guitar 2
e|---------------------------------------------------------------------------|
B|---------------------------------------------------------------------------|
G|1111-11-1111-11-11-1111-11-1111-11-11-9-9--9--9-9--9--9--9-9--9--9-9--9--9-| x2
D|1212-12-1212-12-12-1212-12-1212-12-12-7-7--7--7-7--7--7--7-7--7--7-7--7--7-|
A|9-9--9--9-9--9--9--9-9--9--9-9--9--9--7-7--7--7-7--7--7--7-7--7--7-7--7--7-|
D|9-9--9--9-9--9--9--9-9--9--9-9--9--9--7-7--7--7-7--7--7--7-7--7--7-7--7--7-|

Fill Riff (Outro)
Guitar 1
e|---------------------------------------------------------------------------|
B|---------------------------------------------------------------------------|
G|---------------------------------------------------------------------------|
D|0-0--0--0-0--0--0--0-0--0--0-0----5+--0-0--0--0-0--0--0--0-0--0--0-0-------|
A|0-0--0--0-0--0--0--0-0--0--0-0--5+----0-0--0--0-0--0--0--0-0--0--0-0-------|
D|0-0--0--0-0--0--0--0-0--0--0-0--------0-0--0--0-0--0--0--0-0--0--0-0-------|

Guitar 2
e|---------------------------------------------------------------------------|
B|---------------------------------------------------------------------------|
G|---------------------------------------------------------------------------|
D|0-0--0--0-0--0--0--0-0--0--0-0--0-0---0-0--0--0-0--0--0--0-0--0--0-0-------|
A|0-0--0--0-0--0--0--0-0--0--0-0--0-0---0-0--0--0-0--0--0--0-0--0--0-0-------|
D|0-0--0--0-0--0--0--0-0--0--0-0--0-0---0-0--0--0-0--0--0--0-0--0--0-0-------|



************************************

| /   slide up
| \   slide down
| h   hammer-on
| p   pull-off
| ~   vibrato
| +   harmonic
| x   Mute note
| b   Bend
| pb  Pre-bend
| br  Bend release
| pbr Pre-bend release
| brb Bend release bend

************************************
Добавлено: 29.11.2013
Другие материалы по этой песне:
  • Аккорды и текст

Страница создана 29.11.2013
http://primanota.ru/misc-unsigned-bands/fallen-edge-break-the-waves-chords.htm
Привет, Гость.
Предлагаем пройти революционный курс по гитаре.
Подарок от PrimaNota.Ru, забирай!