PrimaNota.ru - самый крупный в мире бесплатный архив песенных текстов, аккордов, табулатур и нот


Misc Unsigned Bands - Ugly Love - Burn Down The Cinema - таба

Регистрация Запомнить меня
Войти через:  Facebook Google Twitter Vk Yandex Mail.ru

Misc Unsigned Bands - Ugly Love - Burn Down The Cinema - таба

Печатать
Просмотров: 36
http://uglylove.co.uk/
-------------------------------------------------------------------------------
                             BURN DOWN THE CINEMA - Ugly Love
-------------------------------------------------------------------------------
Tabbed by: Sgtbarnes1917

Tuning: Standard

VERSE 1 (PALM MUTE)/ CHORUS 1

E|----------------------------------------------------|
B|----------------------------------------------------|
G|----------------------------------------------------| x3
D|----------------------------------------------------|
A|-3------------3------3-2--3-----------2-2-2-2-2-2-2-|
E|----3-4-3-2-3----3-4--------3-4-3-2-3---------------|

E|--------------------------------------------|
B|--------------------------------------------|
G|--------------------------------------4-----|
D|--------------------------------------4(x7)-|
A|-3------------3------3-2-3------------2-----|
E|----3-4-3-2-3----3-4--------3-4-3-2-3-------|

PRE-VERSE

E|--------------------------------------------|
B|--------------------------------------------|
G|-5------------5----------5------------4-----| x2
D|-5------------5----------5------------4(x7)-|
A|-3------------3------3-2-3------------2-----|
E|---3-4-3-2-3----3-4--------3-4-3-2-3--------|

VERSE 2 (PALM MUTE)

E|----------------------------------------------------|
B|----------------------------------------------------|
G|----------------------------------------------------|
D|----------------------------------------------------|
A|-3------------3------3-2--3-----------2-2-2-2-2-2-2-|
E|----3-4-3-2-3----3-4--------3-4-3-2-3---------------|

E|--------------------------------------------|
B|--------------------------------------------|
G|--------------------------------------4-----|
D|--------------------------------------4(x7)-|
A|-3------------3------3-2-3------------2-----|
E|----3-4-3-2-3----3-4--------3-4-3-2-3-------|

BRIDGE / VERSE 3 (PALM MUTE)

E|----------------------------------------------------|
B|----------------------------------------------------|
G|----------------------------------------------------|
D|-3------------3------3-2-3------------2-2-2-2-2-2-2-|
A|----3-4-3-2-3----3-4--------3-4-3-2-3---------------|
E|----------------------------------------------------|

SOLO

E|------------------------------------------------------------------------------------------------------|
B|------------------------------------------------------------------------------------------------------|
G|------------------------------------------------------------------------------------------------------|
D|------------3-3-3-3-3-3-2-2-2-2-2-2-1-1-1-1-1-1-1-----------3-3-3-3-3-3-5-5-5-5-5-5-5-7-7-7-7-7-7-7-7-|
A|--5-5-5-5-5---------------------------------------5-5-5-5-5-------------------------------------------|
E|------------------------------------------------------------------------------------------------------|

E|----------------------------------------------------|
B|----------------------------------------------------|
G|----------------------------------------------------|
D|----------------------------------------------------|
A|-3------------3------3-2--3-----------2-2-2-2-2-2-2-|
E|----3-4-3-2-3----3-4--------3-4-3-2-3---------------|

OUTRO

E|----------------------------------------------------|
B|----------------------------------------------------|
G|----------------------------------------------------| x2
D|----------------------------------------------------|
A|-3------------3------3-2--3-----------2-2-2-2-2-2-2-|
E|----3-4-3-2-3----3-4--------3-4-3-2-3---------------|
Добавлено: 17.10.2015
Другие материалы по этой песне:
  • Аккорды и текст

Страница создана 17.10.2015
http://primanota.ru/misc-unsigned-bands/ugly-love-burn-down-cinema-chords.htm
Привет, Гость.
Предлагаем пройти революционный курс по гитаре.
Подарок от PrimaNota.Ru, забирай!