PrimaNota.ru - самый крупный в мире бесплатный архив песенных текстов, аккордов, табулатур и нот


Misc Unsigned Bands - William J Gaither - Theres Somthing About That Name - таба

Регистрация Запомнить меня
Войти через:  Facebook Google Twitter Vk Yandex Mail.ru

Misc Unsigned Bands - William J Gaither - Theres Somthing About That Name - таба

Печатать
Просмотров: 72
-------------------------------------------------------------------------------
             there's something about that name - William Gaither
-------------------------------------------------------------------------------
Tabbed by:
E-mail:
key of Eb
Tuning:E-A-D-G-B-e

e|--------------------------------------------------------------------------------|
B|--------------------------------------------------------------------------------|
G|--3-0----3-0----3--0---0----------------------------------0---3--0---3--0--3--0-|
D|--5-1----5-0----5--0-----------3----1--1-----1--3----1----1---5--1---5--0--5--1-|
A|-----------------------4-------5----3--3-----3--2----3--------------------------|
E|--------------------------------------------------------------------------------|
   Jesus, Jesus, Jesus, there's just something about that name Master Savior Jesus
e|-----------------------------------------------------------------------------|
B|-----------------------------------------------------------------------------|
G|--0----0--0---------0---------------3-0--3--0---3-0---0----------------------|
D|--1----1--0---3-----1--3---1---3----1-1--5--0---1-1-------3---1--1---1----3--|
A|-----------------------5---3--------------------------4---5---3--3---3----3--|
E|-----------------------------------------------------------------------------|
   like the fragrance after the rain Jesus Jesus Jesus let all heaven and earth 
e|---------------------------------------------------------------------------|
B|------------1------------------------------------------------1----1----3---|
G|-------0---------3---2--0-----0----0-------0---3--3---0-------------------0|
D|--4----0----1----3------1-----1----0----3--1----------1----------------1--1|
A|-------------------------------------------------------------3----3--------|
E|---------------------------------------------------------------------------|
   proclaim kings and kingdoms will all pass away but there's something about 
e|---------------------------------------------------------------------------|
B|---------------------------------------------------------------------------|
G|---0-----------------------------------------------------------------------|
D|---0----1------------------------------------------------------------------|
A|---------------------------------------------------------------------------|
E|---------------------------------------------------------------------------|
   that name


************************************

| /   slide up
| \   slide down
| h   hammer-on
| p   pull-off
| ~   vibrato
| +   harmonic
| x   Mute note
| b   Bend
| pb  Pre-bend
| br  Bend release
| pbr Pre-bend release
| brb Bend release bend

************************************
Добавлено: 19.10.2015
Другие материалы по этой песне:
  • Аккорды и текст

Страница создана 19.10.2015
http://primanota.ru/misc-unsigned-bands/william-j-gaither-theres-somthing-about-that-name-chords.htm
Привет, Гость.
Предлагаем пройти революционный курс по гитаре.
Подарок от PrimaNota.Ru, забирай!