PrimaNota.ru - самый крупный в мире бесплатный архив песенных текстов, аккордов, табулатур и нот


Misc Unsigned Bands - Dopapod - Present Ghosts - таба

Регистрация Запомнить меня
Войти через:  Facebook Google Twitter Vk Yandex Mail.ru

Misc Unsigned Bands - Dopapod - Present Ghosts - таба

Печатать
Просмотров: 34
-------------------------------------------------------------------------------
                             PRESENT GHOSTS - dopapod
-------------------------------------------------------------------------------

Main Riff

e|---------8-------------------------------------------------------------|
B|---9-----------8-------------------------------------------------------|
G|------8--------------8-------------------------------------------------|
D|------------8----------------------------------------------------------|
A|-8----------------10---------------------------------------------------|
E|-----------------------------------------------------------------------|

Main Riff Alt.

e|---------8-------------------------------------------------------------|
B|---9-----------8-------------------------------------------------------|
G|------8----------------8--10-------------------------------------------|
D|------------8----------------10----------------------------------------|
A|-8-----------------/10----------8--------------------------------------|
E|-----------------------------------------------------------------------|

Chorus

e|-----------------------------------------------------------------------|
B|-----------------------------------------------------------------------|
G|-8/10--10-8--10----5--3/5-5--3-5----3--7-8-----------------------------|
D|-8/10--10-8--10----5--3/5-5--3-5--3-3--X-X-----------------------------|
A|-6/8---8--6--8-----3--1/3-3--1-3--3-1--5-6-----------------------------|
E|----------------------------------1------------------------------------|
 
Chorus Bridge

e|-----------------------------------------------------------------------|
B|-----------------------------------------------------------------------|
G|---------------3-------------------------------------------------------|
D|---------3-5-6---------------------------------------------------------|
A|-------3---------------------------------------------------------------|
E|-1-3-4-----------------------------------------------------------------|



************************************

| /   slide up
| \   slide down
| h   hammer-on
| p   pull-off
| ~   vibrato
| +   harmonic
| x   Mute note
| b   Bend
| pb  Pre-bend
| br  Bend release
| pbr Pre-bend release
| brb Bend release bend

************************************
Добавлено: 17.10.2015
Другие материалы по этой песне:
  • Аккорды и текст

Страница создана 17.10.2015
http://primanota.ru/misc-unsigned-bands/dopapod-present-ghosts-chords.htm
Привет, Гость.
Предлагаем пройти революционный курс по гитаре.
Подарок от PrimaNota.Ru, забирай!