PrimaNota.ru - самый крупный в мире бесплатный архив песенных текстов, аккордов, табулатур и нот


Misc Unsigned Bands - Flames Of Destruction - Kat - таба

Регистрация Запомнить меня
Войти через:  Facebook Google Twitter Vk Yandex Mail.ru

Misc Unsigned Bands - Flames Of Destruction - Kat - таба

Печатать
Просмотров: 25
-------------------------------------------------------------------------------
                             Kat - Flames of Destruction
-------------------------------------------------------------------------------
Tabbed by: John Kretschmann
E-mail: John_Kretschmann@Yahoo.com

Tuning: Standard

Intro: 4x
e|--------------------------------------------------------------------------|
B|0---11~~~~~~11--11--10-8-5h6-6~~~~~~-------------------------------------0|
G|--------------------------------------------------------------------------|
D|--------------------------------------------------------------------------|
A|0------------------------------------------------------------------------0|
E|--------------------------------------------------------------------------|

e|------------------------------------------------------------------------------------------|
B|5-5-6-6-5-5-6-6-5-5-6-6-5-5-6-6-5-5-6-6-5-5-6-6-5-5-6-6-5-5-6-6-5-5-6-6-5-8~~8-8-5-5-6-6-5|
G|------------------------------------------------------------------------------------------|
D|------------------------------------------------------------------------------------------|
A|------------------------------------------------------------------------------------------|
E|------------------------------------------------------------------------------------------|

e|-------------------------------------------------------------------------------------------|
B|5-6-6-5-5-6-6-5-5-6-6-5-5-6-6-5-5-6-6-5-5-6-6-5-5-6-6-5-5-6-6-5-11~~11-11-5-5-6-6-5-5-6-6-5|
G|-------------------------------------------------------------------------------------------|
D|-------------------------------------------------------------------------------------------|
A|-------------------------------------------------------------------------------------------|
E|-------------------------------------------------------------------------------------------|

e|------------------------------------------------------------------------------------------|
B|5-6-6-5-5-6-6-5-5-6-6-5-5-6-6-5-5-6-6-5-5-6-6-5-5-6-6-5-8~~8-8-5-5-6-6-5-5-6-6-5-5-6-6-5-5|
G|------------------------------------------------------------------------------------------|
D|------------------------------------------------------------------------------------------|
A|------------------------------------------------------------------------------------------|
E|------------------------------------------------------------------------------------------|

e|----------------------------------------------------------|
B|6-6-5-5-6-6-5-5-6-6-5-5-6-6-5-5-6-6-5-5-6-6-5-11~~8--10/11|
G|----------------------------------------------------------|
D|----------------------------------------------------------|
A|----------------------------------------------------------|
E|----------------------------------------------------------|

e|------------------------------------------------------------------------------------------|
B|------------------------------------------------------------------------------------------|
G|------------------------------------------------------------------------------------------|
D|2-2-3-3-2-2-3-3-2-2-3-3-2-2-3-3-2-2-3-3-2-2-3-3-2-2-3-3-2-2-3-3-2-2-3-3-2-5~~5-5-2-2-3-3-2|
A|0-0-1-1-0-0-1-1-0-0-1-1-0-0-1-1-0-0-1-1-0-0-1-1-0-0-1-1-0-0-1-1-0-0-1-1-0-3~~3-3-0-0-1-1-0|
E|------------------------------------------------------------------------------------------|

e|--------------------------------------------------------------------------------------------------|
B|--------------------------------------------------------------------------------------------------|
G|--------------------------------------------------------------------------------------------------|
D|2-3-3-2-2-3-3-2-2-3-3-2-2-3-3-2-2-3-3-2-2-3-3-2-2-3-3-2-2-3-3-2-2-3-3-2-9~~9-9-2-2-3-3-2-2-3-3-2-2|
A|0-1-1-0-0-1-1-0-0-1-1-0-0-1-1-0-0-1-1-0-0-1-1-0-0-1-1-0-0-1-1-0-0-1-1-0-7--7-7-0-0-1-1-0-0-1-1-0-0|
E|--------------------------------------------------------------------------------------------------|

e|------------------------------------------------------------------------------------------------|
B|------------------------------------------------------------------------------------------------|
G|------------------------------------------------------------------------------------------------|  
D|3-3-2-2-3-3-2-2-3-3-2-2-3-3-2-2-3-3-2-2-3-3-2-2-3-3-2-5~~5-5-2-2-3-3-2-2-3-3-2-2-3-3-2-2-3-3-2-2|
A|1-1-0-0-1-1-0-0-1-1-0-0-1-1-0-0-1-1-0-0-1-1-0-0-1-1-0-3~~3-3-0-0-1-1-0-0-1-1-0-0-1-1-0-0-1-1-0-0|
E|------------------------------------------------------------------------------------------------|

e|-----------------------------------------------|
B|-----------------------------------------------|
G|-----------------------------------------------|
D|3-3-2-2-3-3-2-2-3-3-2-2-3-3-2-2-3-3-2-9~~5--7/9|
A|1-1-0-0-1-1-0-0-1-1-0-0-1-1-0-0-1-1-0-7~~3--5/7|
E|-----------------------------------------------|

Basically, play all of this again for two times for the two verses and two choruses.  You then play the
solo that is right below this.
  
Solo
e|------------6-6-5-5----------6-6-5-5---------6-6-5-5---------6-6-5-5---------6-6-5-5-8~~~~~~-------8\--|
B|0---3-3-6-6----------3-3-6-6---------3-3-6-6---------3-3-6-6---------3-3-6-6-------------------0-------|
G|-------------------------------------------------------------------------------------------------------|
D|-------------------------------------------------------------------------------------------------------|
A|0----------------------------------------------------------------------------------------------0-------|
E|-------------------------------------------------------------------------------------------------------|

After playing the solo, play everything that is before the solo.  You then play this outro and you're done.

Outro
e|--------------------------------------------------------------------------|
B|--------------------------------------------------------------------------|
G|--------------------------------------------------------------------------|
D|5-3-2-3--3~~~~~~~~~~~~~~~~~~~~~~~~~~~~~~~~~~~~~~~~~~~~~~~~~~~~~~~~~~~~~~--|
A|3-1-0-1--1~~~~~~~~~~~~~~~~~~~~~~~~~~~~~~~~~~~~~~~~~~~~~~~~~~~~~~~~~~~~~~--|
E|--------------------------------------------------------------------------|  
************************************

| /   slide up
| \   slide down
| h   hammer-on



************************************
Добавлено: 17.10.2015
Другие материалы по этой песне:
  • Аккорды и текст

Страница создана 17.10.2015
http://primanota.ru/misc-unsigned-bands/flames-of-destruction-kat-chords.htm
Привет, Гость.
Предлагаем пройти революционный курс по гитаре.
Подарок от PrimaNota.Ru, забирай!