PrimaNota.ru - самый крупный в мире бесплатный архив песенных текстов, аккордов, табулатур и нот


Misc Unsigned Bands - Drain - Drown - таба, видео

Регистрация Запомнить меня
Войти через:  Facebook Google Twitter Vk Yandex Mail.ru

Misc Unsigned Bands - Drain - Drown - таба, видео

Печатать
Просмотров: 34
-------------------------------------------------------------------------------
                             DROWN (lead intro) - Drain
-------------------------------------------------------------------------------
Tabbed by: Owen
E-mail: nah@nahmail.nah

Tuning: standard

e|------11---------9---------7---------4-----------11---------9---------7----|
B|-----9---9------7--7------5--5------2--2--------9---9------7--7------5--5--|
G|---10----------8---------6---------3----------10----------8---------6------|
D|-11-----------9---------7---------4---------11-----------9---------7-------|
A|---------------------------------------------------------------------------|
E|---------------------------------------------------------------------------|

e|----4--------9---9---5---2-------------------------------------------------|
B|---2--2------9---9---5---2-------------------------------------------------|
G|--3----------10--8---6---3-------------------------------------------------|
D|-4-----------11--9---7---4-------------------------------------------------|
A|-------------11--9---7---4-------------------------------------------------|
E|-------------9---7---5---2-------------------------------------------------|



************************************

| /   slide up
| \   slide down
| h   hammer-on
| p   pull-off
| ~   vibrato
| +   harmonic
| x   Mute note
| b   Bend
| pb  Pre-bend
| br  Bend release
| pbr Pre-bend release
| brb Bend release bend

************************************
Добавлено: 17.10.2015
Другие материалы по этой песне:
  • Аккорды и текст

Страница создана 17.10.2015
http://primanota.ru/misc-unsigned-bands/drain-drown-chords.htm
Привет, Гость.
Предлагаем пройти революционный курс по гитаре.
Подарок от PrimaNota.Ru, забирай!