PrimaNota.ru - самый крупный в мире бесплатный архив песенных текстов, аккордов, табулатур и нот


Misc Unsigned Bands - Fgdf - One Great City - таба

Регистрация Запомнить меня
Войти через:  Facebook Google Twitter Vk Yandex Mail.ru

Misc Unsigned Bands - Fgdf - One Great City - таба

Печатать
Просмотров: 21
Stave 1:

E|-----------------------------------------------------------------------------------------------------|
B|-----------------------------------------------------------------------------------------------------|
G|--------0--------------0--------------2-----------------------------------0--------------0-----------|
D|-----------2--0-----------2--0-----------2--0--------3--3--3--3--3--3--3-----2--0-----------2--0-----|
A|--3--3-----------3--3-----------3--3-----------3--3--------------------------------3--3-----------3--|
E|-----------------------------------------------------------------------------------------------------|

Stave 2:

E|-----------------------------|
B|-----------------------------|
G|-----2-----------------------|
D|--------2--0--------3--3--3--|
A|--3-----------3--3-----------|
E|-----------------------------|
Добавлено: 17.10.2015
Другие материалы по этой песне:
  • Аккорды и текст

Страница создана 17.10.2015
http://primanota.ru/misc-unsigned-bands/fgdf-one-great-city-chords.htm
Привет, Гость.
Предлагаем пройти революционный курс по гитаре.
Подарок от PrimaNota.Ru, забирай!