PrimaNota.ru - самый крупный в мире бесплатный архив песенных текстов, аккордов, табулатур и нот


Misc Unsigned Bands - Cry Of The Icemark - Practice - таба

Регистрация Запомнить меня
Войти через:  Facebook Google Twitter Vk Yandex Mail.ru

Misc Unsigned Bands - Cry Of The Icemark - Practice - таба

Печатать
Просмотров: 26
(/) Slide Up  (\) Slide Down  (h) Hammer On  (p) Pull Off  (b) Bend (r) Release (v) Vibrato

Stave 1:

E|----------------------------------------|
B|--------------0-------------------------|
G|-----0-----0-----0-----0-----0-----0----|
D|--------4-----------4-----------4-------|
A|--7-----------------------7-------------|
E|----------------------------------------|

Stave 2:

E|----------------------------------------|
B|-------------------------0--------------|
G|-----0-----0----0-----0-----0-----0-----|
D|--------4----------4-----------4--------|
A|--5----------3--------------------------|
E|----------------------------------------|

Stave 3:
E|----------------------------|
B|----------------------------|
G|----0-----0-----0-----0-----|
D|-------4-----------4--------|
A|--3----------5-----------5/-|
E|----------------------------|

   When you reach the end, return back to  stave 1. Repeat this cycle 3x.
Добавлено: 17.10.2015
Другие материалы по этой песне:
  • Аккорды и текст

Страница создана 17.10.2015
http://primanota.ru/misc-unsigned-bands/cry-of-icemark-practice-chords.htm
Привет, Гость.
Предлагаем пройти революционный курс по гитаре.
Подарок от PrimaNota.Ru, забирай!