PrimaNota.ru - самый крупный в мире бесплатный архив песенных текстов, аккордов, табулатур и нот


Misc Unsigned Bands - Deep Freefall - A Thought - таба

Регистрация Запомнить меня
Войти через:  Facebook Google Twitter Vk Yandex Mail.ru

Misc Unsigned Bands - Deep Freefall - A Thought - таба

Печатать
Просмотров: 85
TUNING: DGCFAD

Song: https://www.youtube.com/watch?v=f2AkoSwX0U4



  Gtr. rhythm 1
D|--------------------------------------|
A|--------------------------------------|
F|--------------------------------------|
C|--------------------------------------|
G|--------------------------------------|
D|-0--00--0--30--0--03--0--55-33--------|
 |                                      | Play until 2:10 
 | Gtr. rhythm 2 (starts at 0:10)       |
D|--------------------------------------|          
A|--------------------------------------|         
F|-4-44-4-44-4-44-4-5-55-5--------------|
C|-2-22-2-22-2-22-2-2-22-2--------------|
G|--------------------------------------|
D|--------------------------------------|

//////////////////////////////////////////////////////

   Gtr. Harmonic 1
D|---------------<12>-------------------|          
A|-12~~---------------------------------|         
F|-12~~---<7>---------------------------|
C|--------------------------------------|
G|--------------------------------------|
D|--------------------------------------|
 | Gtr. Harmonic 2                      |                                      
D|--------------------------------------|          
A|-<5>----------------------------------|         
F|--------------------------------------|
C|--------------------------------------|
G|--------------------------------------|
D|--------------------------------------|

//////////////////////////////////////////////////////


  Melody 1 (starts at 0:26)

D|-----------------------------------------------------------------|          
A|-----------------------------------------------------------------|         
F|-----------------------------------------------------------------| 
C|--------9-------------9-------------9------12-10-9---------------| Play 2x
G|-7-9-10---10-9-7-9-10---10-9-7-9-10---10-9---------10-9-10-------|
D|-----------------------------------------------------------------|

  Melody 2 (starts at 0:34)

D|--------------------------------------------------------------------|          
A|---------10---------------10---------------10------13-12-10---------|         
F|---11-12----12-11---11-12----12-11---11-12---12-11----------12-11-12|
C|-9----------------9----------------9--------------------------------| Play 2x
G|--------------------------------------------------------------------|
D|--------------------------------------------------------------------|

   Melody 3 (starts at 0:42)

D|-------------------------------------------------------------------------------------|          
A|-------------------------------------------------------------------------------------|         
F|-777-999-111111-121212-141414-161616-181818-202020-21(10x)~~-------------------------|
C|-------------------------------------------------------------------------------------|
G|-------------------------------------------------------------------------------------|
D|-------------------------------------------------------------------------------------|

   Melody 4 (starts at 0:50)

D|-------------------------------------------------------------------------------------|          
A|-------------------------------------------------------------------------------------|         
F|-12-12-12-11-11-11-9-9-9-7-7-7-9-9-9-7-7-7-------------------------------------------|
C|-------------------------------------------9-9-9/12/9-9-7/9-9-7/9-9-7/9/10-9-7/9-----| Play 2x
G|-------------------------------------------------------------------------------------|
D|-------------------------------------------------------------------------------------|

  Melody 5 (starts at 1:06, with vocals)

D|------------------------------------------------------------------------|          
A|------------------------------------------------------------------------|         
F|------------------------------------------------------------------------|
C|-9-99-9-99-9-99-9-99-10-1010-10-1010-7-77-10-1010-----------------------|
G|------------------------------------------------------------------------|
D|------------------------------------------------------------------------|
     **   **   **   **    * *     * *    **    * *                         play both, 2x
D|------------------------------------------------------------------------|          
A|------------------------------------------------------------------------|         
F|------------------------------------------------------------------------|
C|-9-99-9-99-9-99-9-99-10-1010-10-1010-12-1212-12-1212--------------------|
G|------------------------------------------------------------------------|
D|------------------------------------------------------------------------|
   **   **   **   **    * *     * *

   Melody 6 (starts at 1:22)

D|--------------------------------------------------------------------------------------------------       
A|-13-10-12-10----13-10-12-12----13-10-12 10----13-10-12-10----13-10-12-10----13-10-12-10-----------    
F|-------------12-------------12-------------12-------------12-------------12-------------12--------
C|--------------------------------------------------------------------------------------------------
G|--------------------------------------------------------------------------------------------------
D|--------------------------------------------------------------------------------------------------

  --------------------------------------------------------------------|          
  15-10-13-10-12-13-10-12-10-13-10-12---------------------------------|         
  --------------------------------------------------------------------|
  --------------------------------------------------------------------|
  --------------------------------------------------------------------|
  --------------------------------------------------------------------|

D|------------------------------------------------------------------------------------------------14----        
A|---------------------------------------------------------------------14----14-15-14-15-17-15-17----17-   
F|---------------------------------11----11-12-11-12-14-12-14-16-14-16----16----------------------------
C|-9-7-9-10-9-10-12-10-12-14-12-14----14----------------------------------------------------------------
G|------------------------------------------------------------------------------------------------------
D|------------------------------------------------------------------------------------------------------

  14-15-14-15-17-15-17-19-17-19--20-19-20-22(10x)---------------------|          
  --------------------------------------------------------------------|         
  --------------------------------------------------------------------|
  --------------------------------------------------------------------|
  --------------------------------------------------------------------|
  --------------------------------------------------------------------|


Starts at 1:37, same as Melody 4.

Starts at 1:54, same as Melody 5.

//////////////////////////////////////////////////////


  Gtr. rhythm 3 (starts at 2:10)

D|-------------------------------0------|          
A|-------0-----0---------0--------------|         
F|-----4---------5-----5-------5--------| 
C|---2-------2-------2-------3----------| until the end
G|-0---------------3--------------------|
D|---------3---------------1------------|

 Melody 7 (starts at 2:18)

D|-------------------------------------------------------|          
A|-------------------------------------------------------|         
F|-------------------------------------------------------|
C|-9?10--7-9-10--9--14-17-14--12-14-12--10-12-10--9-10-9-| Play 3x
G|-------------------------------------------------------|
D|-------------------------------------------------------|

 Melody 8

D|----------------------------------------------------------------|          
A|----------------------------------------------------------------|         
F|----------------------------------------------------------------|
C|-9--10-7--9-5--7-4--17-14--15-12--14-10--12-9--10-9-------------|
G|----------------------------------------------------------------|
D|----------------------------------------------------------------|








Добавлено: 12.10.2015
Другие материалы по этой песне:
  • Аккорды и текст

Страница создана 12.10.2015
http://primanota.ru/misc-unsigned-bands/deep-freefall-a-thought-chords.htm
Привет, Гость.
Предлагаем пройти революционный курс по гитаре.
Подарок от PrimaNota.Ru, забирай!