PrimaNota.ru - самый крупный в мире бесплатный архив песенных текстов, аккордов, табулатур и нот


Misc Unsigned Bands - Dairybeat - El Nido - таба

Регистрация Запомнить меня
Войти через:  Facebook Google Twitter Vk Yandex Mail.ru

Misc Unsigned Bands - Dairybeat - El Nido - таба

Печатать
Просмотров: 22
DAIRYBEAT: EL NIDO (The Nest) (André H. Hofman - 2004) 4/4 - 100

|./.   |: Repeat the previous Chord and Measure of 4-counts.

Intro: 

  A    |A       |./.     |./.     |
e|------9R---7-5------------------|
b|--------------------------------|
g|---------------6R---4-2---------|
d|--------------------------------|
a|------------------------4R---2-0|
e|--------------------------------|

Verse 1:

 |A    |E       |A     |./.   |./.   |E       |A      |A7    |
e|-----------------------------------------------------------|
b|-----------2-----------------------------2-----------2-----|
g|2-----1--4---4-2--------------2-----1--4---4-2---2-4------2|
d|------------------2-4-2---2-2------------------------------|
a|-----------------------------------------------------------|
e|-----------------------------------------------------------|

 |D    |./.     |A    |./.   |./.   |E       |A      |E      |
e|---------2-0-----------------------------------------------|
b|3-----3------3-2------------------------2-----------------5|
g|-------------------4-2------2------1--4---4-2--------------|
d|--------------------------2---------------------2-4-2------|
a|-----------------------------------------------------------|
e|-----------------------------------------------------------|

Verse 2:

 |A    |E       |A      |./.   |./.   |E       |A       |A7     |
e|5-----4--7-9-7----------------5----5-4--7-9-7--------7-9------|
b|---------------10--5-7-5----5-----------------10--10--------10|
g|--------------------------------------------------------------|
d|--------------------------------------------------------------|
a|--------------------------------------------------------------|
e|--------------------------------------------------------------|

 |D     |./.      |A      |./.   |./.   |E       |A        |A7    |
e|10-----14-12-10--9----7--5------5------4--7-9-7---------7-9-----|
b|------------------------------5-----------------10---10---------|
g|----------------------------------------------------------------|
d|----------------------------------------------------------------|
a|----------------------------------------------------------------|
e|----------------------------------------------------------------|

Chorus:

 |D          |./.        |A         |./.       |E          |
e|10R---7-----10R---7-----9R---7-----9R---7-----7R---7-----|
b|--------10----------10---------10---------10---------10-9|
g|---------------------------------------------------------|
d|---------------------------------------------------------|
a|---------------------------------------------------------|
e|---------------------------------------------------------|

 |./.       |A              |A7    |D             |./.         |
e|7R-----------------------7-9------10R--14-12-10-10R--14-12-10|
b|-----10-9--10--9-10-9-10-------------------------------------|
g|-------------------------------------------------------------|
d|-------------------------------------------------------------|
a|-------------------------------------------------------------|
e|-------------------------------------------------------------|

 |A           |./.        |E         |./.        |A      |F   F7|
e|9R--12-10-9--9R--12-10-9-7R--10-9-7-7R--10-9-7--5-----5-------|
b|--------------------------------------------------------6-----|
g|--------------------------------------------------------------|
d|--------------------------------------------------------------|
a|--------------------------------------------------------------|
e|-------------------------------------------------------------1|

Verse 3:

 |Bb   |F       |Bb     |./.    |./.   |F       |Bb    |Bb7     |
e|--------------------------------------------------------------|
b|--------------------------------------------------------------|
g|--------------------------------------------------------------|
d|--------------------------------------------------------------|
a|1-----0--3-5-3-1-----------------1-----0--3-5-3-1--1-3--5----1|
e|-------------------1-3-1---1-1-1------------------------------|

 |Eb   |./.       |Bb    |./.    |./.  |F        |Bb     |F      |
e|---------------------------------------------------------------|
b|---------------------------------------------------------------|
g|---------------------------------------------------------------|
d|1--------1-5-3-1-0--------------------------------------------3|
a|---------------------3--1-------1-----0---3-5-3-1--------------|
e|------------------------------1---------------------1-3-1------|

Bridge + Outro:

 |Bb   |F       |Bb     |F    |Bb    |F        |Bb    |
e|-----------------------------6------5--8-10-8-------|
b|-----------3---------------6------------------11----|
g|3-----2--5---5-3------------------------------------|
d|-------------------3-5-3----------------------------|
a|----------------------------------------------------|
e|----------------------------------------------------|

                             /  / (Breaks)
 |Bb       |./.     |./.     F7|Bb    |
e|10R---8-6---------------------------|
b|------------------------------------|
g|----------7R---5-3------------------|
d|------------------------------------|
a|-------------------5R---3-1---1-----|
e|----------------------------1-------|


DAIRYBEAT, André H. Hofman.
TABS, ORIGINALS, COVERS, BACKING TRACKS & INFO
(Use only Dairybeat TABS for all BACKING TRACKS):

600+ Free* Dairybeat & Various TABS in MS-Word;
100+ Free* Dairybeat ORIGINALS, COVERS & BACKING TRACKS in WAV or MP3 on:
http://1drv.ms/1CLyZWo

Dairybeat Free* Originals, Covers & Backing Tracks in MP3 on:
http://www.soundclick.com/bands/default.cfm?bandID=137360&content=music

Dairybeat Free* Originals, Covers & Backing Tracks in WAV on:
https://soundcloud.com/dairybeat

Dairybeat promotion on:
https://www.youtube.com/user/Dairybeat
Добавлено: 17.10.2015
Другие материалы по этой песне:
  • Аккорды и текст

Страница создана 17.10.2015
http://primanota.ru/misc-unsigned-bands/dairybeat-el-nido-chords.htm
Привет, Гость.
Предлагаем пройти революционный курс по гитаре.
Подарок от PrimaNota.Ru, забирай!