PrimaNota.ru - самый крупный в мире бесплатный архив песенных текстов, аккордов, табулатур и нот


Misc Unsigned Bands - Dj Sona - Kinetic - таба

Регистрация Запомнить меня
Войти через:  Facebook Google Twitter Vk Yandex Mail.ru

Misc Unsigned Bands - Dj Sona - Kinetic - таба

Печатать
Просмотров: 71
-------------------------------------------------------------------------------
                             Kinetic - DJ Sona
-------------------------------------------------------------------------------
Tabbed by: AlvadoZ
Tuning: Drop D (eHGDAD)

Watch this for the timing/rythm :https://www.youtube.com/watch?v=-uyCW_oosLY

e|--------------------------------------------------------------------------------|
H|-------------------------------------------------------------5------------------|
G|---------------------4--4------4-2--------------------7----4---0----4-2---------|
D|-0--2------4--5-----------2-------------4--5-2----5-4---------------------------|
A|------2---------5-------3---3--------------------------------3---3--------------|
D|----2---2-----5---5--------------0--0------2---2----5---5-------------0---0-----|

                                                             +  +  +   +  +
e|----0-------2-3------7--7-0----7-5--------------------10------12---------|
H|-3----0---------3-----------------------7--8------8-7------12-------12---|
G|--------------0---0-----5---5----------------9------------------12-------|
D|----2---2------------------------0--0---------------0---0--------------19|
A|-------------------------------------------7---7-------------------------|
D|-------------------------------------------------------------------------|

************************************

| /   slide up
| \   slide down
| h   hammer-on
| p   pull-off
| ~   vibrato
| +   harmonic
| x   Mute note
| b   Bend
| pb  Pre-bend
| br  Bend release
| pbr Pre-bend release
| brb Bend release bend

************************************
Добавлено: 17.10.2015
Другие материалы по этой песне:
  • Аккорды и текст

Страница создана 17.10.2015
http://primanota.ru/misc-unsigned-bands/dj-sona-kinetic-chords.htm
Привет, Гость.
Предлагаем пройти революционный курс по гитаре.
Подарок от PrimaNota.Ru, забирай!