PrimaNota.ru - самый крупный в мире бесплатный архив песенных текстов, аккордов, табулатур и нот


Misc Unsigned Bands - Crash - Eye To Eye - таба, видео

Регистрация Запомнить меня
Войти через:  Facebook Google Twitter Vk Yandex Mail.ru

Misc Unsigned Bands - Crash - Eye To Eye - таба, видео

Печатать
Просмотров: 47
Eye to Eye
By : Crash

INTRO

e-----------------------------|--------------------2-----------------|
b--------------------3--------|--------------------3-----------------|
g-----2------2-------2--------|-----2------2-------2-----------------|
d-----2------2-------0--------|-----2------2-------0--2--------------|
a-----0------0-------0--------|-----0------0----------2--------------|
E-3p0----3p0------------------|-3p0----3p0---------------------------|

VERSE

e-----------------2-2------------|
b-----------------3-3------------|
g-----2------2----2-2-2---2------|3x
d-----2------2----0-0-2---2------|
a-----0------0--------0---0------|
E-3p0----3p0---------------------|

Then (pre-chorus)

e---------------------------------------------------------------|
b-----------------3---------------------------------------------|
g-----2------2----0------------------------2-2-2--2-2-2---------|
d-----2------2----0--2-2-2-2-2-2-2-2-------2-2-2--2-2-2---------|
a-----0------0----x--2-2-2-2-2-2-2-2-------0-0-0--0-0-0---------|
E-3p0----3p0------3------------------3b4-0----------------------|

CHORUS

e-----------------------------------|
b--------------------3-3-3----------|
g-2--------2---2-2---2-2-0----------|3x
d-2--------2---2-2---0-0-0----------|
a-0--------0---0-0---0-0-x----------|
E----3b4-0---------------3----------|

then
             
e-----------------------------------------|
b--------------3---3-3---3-3---3-3--------|
g-2--------2---0h2-2-0h2-2-0h2-2-0--------|
d-2--------2---------------------0--------|
a-0--------0---------------------x--------|
E----3b4-0-----------------------3--------|

Repeat:

Verse (7x)
then for the 8th time do the second staff (pre-chorus)

Chorus do the first staff 3x then do this (bridge)
                                          
2nd staff of chorus/bridge
e--------------------------------------------------------------------------|
b--------------3---3-3---3-3---3-3---3-3---3-3---3-3---3-3---3-3---3-------|
g-2--------2---0h2-2-0h2-2-0h2-2-0h2-2-0h2-2-0h2-2-0h2-2-0h2-2-0h2-2-------|
d-2--------2---------------------------------------------------------------|
a-0--------0---------------------------------------------------------------|
E----3b4-0-----------------------------------------------------------------|

SOLO

e--------------5---------------------------------|---------7---------------|
b-8b10-pb10~~---8-5-5----------------------------|7b8r7-----10-7-----7-----|
g------------------7-5----7p5-7~-5b7-------------|7b8r7---------9b10--7----|
d---------------------7~~------------7-7~~-/9~~~-|------9~-------------9~~-|
a------------------------------------------------|-------------------------|
E------------------------------------------------|-------------------------|

-----------|------------------------------------------------------------|---
-----------|-15b16-pb16~~-15b16-15-15b16~------------17-----------------|---
-4b5-2-----|-------------------------------16~-16b18=====14~------------|---
------4~~~-|-------------------------------------------------16-14-16~~-|---
-----------|------------------------------------------------------------|14-
-----------|------------------------------------------------------------|---

--------------------------|
--------------------------|
--------------------------|
---------------x<~~~~~~~--|
-12-11---------x<~~~~~~~--|
-------9b10~~~------------|

VERSE

e-----------------2-2------------|
b-----------------3-3------------|
g-----2------2----2-2-2---2------|3x
d-----2------2----0-0-2---2------|
a-----0------0--------0---0------|
E-3p0----3p0---------------------|

Then (pre-chorus)

e---------------------------------------------------------------|
b-----------------3---------------------------------------------|
g-----2------2----0------------------------2-2-2--2-2-2---------|
d-----2------2----0--2-2-2-2-2-2-2-2-------2-2-2--2-2-2---------|
a-----0------0----x--2-2-2-2-2-2-2-2-------0-0-0--0-0-0---------|
E-3p0----3p0------3------------------3b4-0----------------------|

CHORUS

e-----------------------------------|
b--------------------3-3-3----------|
g-2--------2---2-2---2-2-0----------|3x
d-2--------2---2-2---0-0-0----------|
a-0--------0---0-0---0-0-x----------|
E----3b4-0---------------3----------|

OUTRO

e--------------------------------------------------------------------------|
b--------------------------------------------------------------------------|
g-2----------------------------------------------------------------------2-|
d-2-------------2-2-2-2-2-2-2-2-2-2-2-2-2-2-2-2-2-2-2-2-2-2--------------2-|
a-0-------------2-2-2-2-2-2-2-2-2-2-2-2-2-2-2-2-2-2-2-2-2-2--------------0-|
E---3b4~~~-0---------------------------------------------------------------|
Добавлено: 25.09.2013
Другие материалы по этой песне:
  • Аккорды и текст

Страница создана 25.09.2013
http://primanota.ru/misc-unsigned-bands/crash-eye-to-eye-chords.htm
Привет, Гость.
Предлагаем пройти революционный курс по гитаре.
Подарок от PrimaNota.Ru, забирай!