PrimaNota.ru - самый крупный в мире бесплатный архив песенных текстов, аккордов, табулатур и нот


Misc Unsigned Bands - Creeping Death - Disintegrate - таба, видео

Регистрация Запомнить меня
Войти через:  Facebook Google Twitter Vk Yandex Mail.ru

Misc Unsigned Bands - Creeping Death - Disintegrate - таба, видео

Печатать
Просмотров: 45
Disintegrate.

This is a song by my band currently two guitarists and an awesome bass player, we are a 
metal band and we are hoping to be gigging in a couple of months. We are based in Stoke 
Trent in England and looking for a drummer.
Our riffs are excellent in my opinion, very slayer like. More tabs will be up soon for 
wanting to have a pop at a blind tab (i.e you have never heard the song)
Cheers, Daz.

Main Riff:
E----------------------------------------|
B----------------------------------------|
G----------------------------------------|
D----------------------------------------|
A------7-----7---7-----7----8p7-5h7------|
E--0-0---0-0---0---0-0---0---------------| X7

Drums enter after four Bars of intro
E-------------------------------|
B-------------------------------|
G-------------------------------|
D-------------------------------|
A------7-----7---7--2-----------|
e--0-0---0-0---0----0-----------| X One

Both Guitars:
E----------------------------------------|
B----------------------------------------|
G----------------------------------------|
D----------------------------------------|
A------7-----7---7-----7----8p7-5h7------|
E--0-0---0-0---0---0-0---0---------------| X8

Variation (played Once Only):
E----------------------------------------|
B----------------------------------------|
G----------------------------------------|
D-----------------------7----------------|
A------8-----7---10-----------8p7
Добавлено: 02.01.2014
Другие материалы по этой песне:
  • Аккорды и текст

Страница создана 02.01.2014
http://primanota.ru/misc-unsigned-bands/creeping-death-disintegrate-chords.htm
Привет, Гость.
Предлагаем пройти революционный курс по гитаре.
Подарок от PrimaNota.Ru, забирай!