PrimaNota.ru - самый крупный в мире бесплатный архив песенных текстов, аккордов, табулатур и нот


Misc Unsigned Bands - Crash - Thunderball Boogie - таба

Регистрация Запомнить меня
Войти через:  Facebook Google Twitter Vk Yandex Mail.ru

Misc Unsigned Bands - Crash - Thunderball Boogie - таба

Печатать
Просмотров: 40
Thunderball Boogie
By: Crash
Band: Thunderball Boogie

INTRO

e-----------------------------|------------------------------|
b-----0---3---2---------------|-0---2---3---2~---------------|
g-2---0---2---2--4------------|-0---2---2---2~-4-------------|
d-2-------0---0----2~---2--2--|-----0---0---0----2~---2--2---|
a-0---------------------2--2--|-----------------------2--2---|
E-----------------------------|------------------------------|
                               <            3x              >

(Part2) on end of third time

e-------------------------------|
b-0---2---3---------------------|
g-0---2---2--4------------------|
d-----0---0--4------------------|
a------------2------------------|
E-------------------------------|

VERSE
(fingerpick)
e-------------------------------|-----------------------3---3-2---2-----|
b-5--5--5--5--5-3---------------|-5--5--5--5--5-3-------3---3-3---3-----|
g-2--2--2--2--2-2--2---4--4-----|-2--2--2--2--2-2-------0---0-2---2-----|
d------------------2---4--4-----|-----------------------0---0-0---0-----|
a-0--0--0--0--0-0--0---2--2-----|-0--0--0--0--0-0-------x---x-----------|
E-------------------------------|------------------0-2-33---3-----------|

(part2)                          pre-chorus
e-------------------------------|---------------------------------------|
b-5--5--5--5--5-3---------------|-5--5--5--5--5-3-----------------------|
g-2--2--2--2--2-2--2---4--4-----|-2--2--2--2--2-2--9-9-7--2--4----------|
d------------------2---4--4-----|------------------9-9-7--2--4----------|
a-0--0--0--0--0-0--0---2--2-----|-0--0--0--0--0-0--7-7-5--0--2----------|
E-------------------------------|---------------------------------------|

CHORUS

e------------------------------------|------------------------------|
b----------------3-------3-3---------|----------------------3---3---|
g-9-9--7---2-4---0-------2-2---2-----|-9-9--7---2-4-------0-2-2-2---|3x
d-9-9--7---2-4---0-------0-0---2-----|-9-9--7---2-4-----0---0-2-0---|
a-7-7--5---0-2---x-------------0-----|-7-7--5---0-2---3-------0-----|
E----------------3--2--0-------------|------------------------------|

on 4th time of chorus
e------------------------------------|--------------------------------|
b----------------3-------3-3---------|---------------3b5-3-2----------|
g-9-9--7---2-4---0-------2-2---2-----|-9-9--7---2-4---------4---------|
d-9-9--7---2-4---0-------0-0---2-----|-9-9--7---2-4----------4-2-4~~~-|
a-7-7--5---0-2---x-------------0-----|-7-7--5---0-2-------------------|
E----------------3--2--0-------------|--------------------------------|

-----------------|
-----------------|
-----------------|
~~~~~~~~~~~~~~~~-|
-----------------|
-----------------|

VERSE
(fingerpick)
e-------------------------------|-----------------------3---2---2-----|
b-5--5--5--5--5-3---------------|-5--5--5--5--5-3-------3---3---3-----|
g-2--2--2--2--2-2--2---4--4-----|-2--2--2--2--2-2-------0---2---2-----|
d------------------2---4--4-----|-----------------------0---0---0-----|
a-0--0--0--0--0-0--0---2--2-----|-0--0--0--0--0-0-------x-------------|
E-------------------------------|------------------0-2-33-------------|

(part2)                          pre-chorus
e-------------------------------|---------------------------------------|
b-5--5--5--5--5-3---------------|-5--5--5--5--5-3-----------------------|
g-2--2--2--2--2-2--2---4--4-----|-2--2--2--2--2-2--9-9-7--2--4----------|
d------------------2---4--4-----|------------------9-9-7--2--4----------|
a-0--0--0--0--0-0--0---2--2-----|-0--0--0--0--0-0--7-7-5--0--2----------|
E-------------------------------|---------------------------------------|

CHORUS
                                                            ^ ^ ^
e------------------------------------|------------------------------|
b----------------3-------3-3---------|----------------------3---3---|
g-9-9--7---2-4---0-------2-2---2-----|-9-9--7---2-4-------0-2-2-2---|3x
d-9-9--7---2-4---0-------0-0---2-----|-9-9--7---2-4-----0---0-2-0---|
a-7-7--5---0-2---x-------------0-----|-7-7--5---0-2---3-------0-----|
E----------------3--2--0-------------|------------------------------|

on 4th time of chorus                 BRIDGE
e------------------------------------|-------------------------------|
b----------------3-------3-3---------|--------------8-8-7-8\---------|
g-9-9--7---2-4---0-------2-2---2-----|-9-9--7---2-4-7-7-7-7\---------|
d-9-9--7---2-4---0-------0-0---2-----|-9-9--7---2-4----------x<~~~~~-|
a-7-7--5---0-2---x-------------0-----|-7-7--5---0-2----------x<~~~~~-|
E----------------3--2--0-------------|-------------------------------|

------|
------|
------|
~~~~~-|
~~~~~-|
------|

SOLO
               ^ ^
e----------------------------------------------------------------------|
b-----------------------8b10----12b14-10-----12-13b15-13-13b15---------|
g-7b8-5------x-7-5-7~-7------9~----------11~-------------------14------|
d-------5-7~-x----------------------------------------------------12~~-|
a----------------------------------------------------------------------|
E----------------------------------------------------------------------|

  s.b.
-------------------------------------------------------------------|
--20-----20---20--------------------5------7-------8--------10-----|
--19b21-(21)-(21)-19---17---------x-7b8~-x-9b10~-x-10b11~-x-12b13~-|
~------------------------17-15~~~-x------x-------x--------x--------|
-------------------------------------------------------------------|
-------------------------------------------------------------------|

--------------------------------------------------|
---13-------15-------18-------20b22~~~------------|
-x-15b16~-x-17b18~-x-20b21~-x---------------------|
-x--------x--------x-------------------x<~~~~~~~~-|
---------------------------------------x<~~~~~~~~-|
--------------------------------------------------|

CHORUS (outro) repeat till fade

e------------------------------------|------------------------------|
b----------------3-------3-3---------|----------------------3---3---|
g-9-9--7---2-4---0-------2-2---2-----|-9-9--7---2-4-------0-2-2-2---|
d-9-9--7---2-4---0-------0-0---2-----|-9-9--7---2-4-----0---0-2-0---|
a-7-7--5---0-2---x-------------0-----|-7-7--5---0-2---3-------0-----|
E----------------3--2--0-------------|------------------------------|
Добавлено: 08.08.2013
Другие материалы по этой песне:
  • Аккорды и текст

Страница создана 08.08.2013
http://primanota.ru/misc-unsigned-bands/crash-thunderball-boogie-chords.htm
Привет, Гость.
Предлагаем пройти революционный курс по гитаре.
Подарок от PrimaNota.Ru, забирай!