PrimaNota.ru - самый крупный в мире бесплатный архив песенных текстов, аккордов, табулатур и нот


Misc Unsigned Bands - Crash - Unlock The Shackles - таба

Регистрация Запомнить меня
Войти через:  Facebook Google Twitter Vk Yandex Mail.ru

Misc Unsigned Bands - Crash - Unlock The Shackles - таба

Печатать
Просмотров: 45
INTRO

e------------------------------|
b-------10-----8-----7---7-8---|
g-----9----9-----9-----7-------|3x
d---7--------7-----7-----------|
a-0----------------------------|
E------------------------------|


then

e-------------------------------|
b-------10-----8-----7-7-8------|
g-----9----9-----9---7-7-7------|
d---7--------7-----7-0-0-0------|
a-0-----------------------------|
E-------------------------------|


VERSE

e-----------------------|
b-3---------------------|
g-2-x-2-------4----2----|3x
d-0-x-2--2--x-4--x-2----|
a-0-x-0--2--x-2--x-0----|
E-----------------------|

PRE-CHORUS

e--------------------------------------------|
b-----------------------------3-3--3-3---3---|
g-4------9-7-9-----2-2--4-----0-0--2-2-2-2---|
d-4------9-7-9-----2-2--4---x-0-0--0-0-2-0---|
a-2------7-5-7-----0-0--2---x-x-x--0-0-0-0---|
E-----------------------------3-3------------|

CHORUS
                          <        2x       >
e----------|-------------|---------3-3-------|
b----------|-----3-------|---------3-3-------|
g-4-----2--|-----2---2---|---------0-0-2-----|4x
d-4-----2--|-2---0---2---|-2--2-2--0-0-2-----|
a-2-----0--|-2---0---0---|-2--2-2--x-x-0-----|
E----------|-0-----------|-0--0-0--3-3-------|

CHORUS (part 2) for 4th time after 2nd staff of chorus part 1

e--------3-3--------|  |---------3-3--------------------------|
b--------3-3--------|  |---------3-3--------------------------|
g--------0-0-2--x-x-|3x|---------0-0-2------------------------|
d-2-2-2--0-0-2--x-x-|  |-2--2-2--0-0-2------------------------|
a-2-2-2--x-x-0--x-x-|  |-2--2-2--x-x-0------------------------|
E-0-0-0--3-3--------|  |-0--0-0--3-3--------------------------|

VERSE

e-----------------------|
b-3---------------------|
g-2-x-2-------4----2----|7x
d-0-x-2--2--x-4--x-2-2--|
a-0-x-0--2--x-2--x-0-0--|
E-----------------------|

PRE-CHORUS

e-------------------------------------------------|
b-----------------------------3-3--3-3---3--------|
g-4------9-7-9-----2-2--4-----0-0--2-2-2-2--------|
d-4------9-7-9-----2-2--4---x-0-0--0-0-2-0--------|
a-2------7-5-7-----0-0--2---x-x-x--0-0-0-0--------|
E-----------------------------3-3-----------------|

CHORUS
                          <        2x       >
e----------|-------------|---------3-3-------|
b----------|-----3-------|---------3-3-------|
g-4-----2--|-----2---2---|---------0-0-2-----|4x
d-4-----2--|-2---0---2---|-2--2-2--0-0-2-----|
a-2-----0--|-2---0---0---|-2--2-2--x-x-0-----|
E----------|-0-----------|-0--0-0--3-3-------|

CHORUS (part 2) for 4th time after 2nd staff of chorus part 1

e---------3-3--------|  |---------3-3----|
b---------3-3--------|  |---------3-3----|
g---------0-0-2--x-x-|3x|---------0-0-2--|
d-2--2-2--0-0-2--x-x-|  |-2--2-2--0-0-2--|
a-2--2-2--x-x-0--x-x-|  |-2--2-2--x-x-0--|
E-0--0-0--3-3--------|  |-0--0-0--3-3----|


BRIDGE
                                 then this
e--------------------------|  |------------------------2--3----------------|
b-----10-----8-----7---7-8-|  |-----10-----8-----------3--3----------------|
g---9----9-----9-----7-----|3x|---9----9-----9---7-7-2-2--0----------------|
d-7--------7-----7---------|  |-7--------7-----7-7-7-2-0--0-----x<~~~~~~~~-|
a--------------------------|  |------------------5-5-0----x-----x<~~~~~~~~-|
E--------------------------|  |---------------------------3----------------|

SOLO
                                                  s.b.
e----------------------------|------7-------------------------=
b-15b16~~~-15b16-15-15b16~~~-|-------7-10---------------------=
g----------------------------|-9b10=======r9-7~~~-9b10--------=
d----------------------------|-------------------------7~~~---=
a----------------------------|--------------------------------=
E----------------------------|--------------------------------=

        ^        ^                         ^ ^
=-----------------------|-----------------------------------|------------=
=------------4b5--------|-----------------------------------|-/15-15b17~-=
=-------4-2~-4b5-2------|-2~~~-h5p2p0-----------------------|------------=
=------------------4~~~-|-------------4~~~-4-2-4~~~~~-2-----|------------=
=-/12\------------------|------------------0-0-0------2-----|------------=
=-----------------------|-----------------------------------|------------=

                       ^ ^  ^                  ^  ^
=----------------------15---------------------------------------------|
=---------------15b17----18-15----15--------------17-19b20~~-20b22~~\-|
=-16p14h16~-------------------17~---15---------17---------------------|
=-----------14~-----------------------17b19~--------------------------|
=---------------------------------------------------------------------|
=---------------------------------------------------------------------|

CHORUS
                          <        2x       >
e----------|-------------|---------3-3-------|
b----------|-----3-------|---------3-3-------|
g-4-----2--|-----2---2---|---------0-0-2-----|4x
d-4-----2--|-2---0---2---|-2--2-2--0-0-2-----|
a-2-----0--|-2---0---0---|-2--2-2--x-x-0-----|
E----------|-0-----------|-0--0-0--3-3-------|

CHORUS (part 2)

e---------3-3--------|  
b---------3-3--------|  
g---------0-0-2--x-x-|4x
d-2--2-2--0-0-2--x-x-|  
a-2--2-2--x-x-0--x-x-|  
E-0--0-0--3-3--------|  

CHORUS
                          <       2x       >
e----------|-------------|---------3-3-------|
b----------|-----3-------|---------3-3-------|
g-4-----2--|-----2---2---|---------0-0-2-----|1x
d-4-----2--|-2---0---2---|-2--2-2--0-0-2-----|
a-2-----0--|-2---0---0---|-2--2-2--x-x-0-----|
E----------|-0-----------|-0--0-0--3-3-------|

CHORUS

e----------|-------------|---------3-3----------------|
b----------|-----3-------|---------3-3----------------|
g-4-----2--|-----2---2---|---------0-0-2--------------|
d-4-----2--|-2---0---2---|-2--2-2--0-0-2--------------|
a-2-----0--|-2---0---0---|-2--2-2--x-x-0--------------|
E----------|-0-----------|-0--0-0--3-3----------------|

VERSE
(fingerpick)
e------------------------|
b-3----------------------|
g-2-x-2-------4----2--2--|3x
d-0-x-2--2--x-4--x-2--2--|
a-0-x-0--2--x-2--x-0--0--|
E------------------------|

OUTRO

e---------------------------------------------------------------------|
b-3-------------------------------------------------------------------|
g-2---2-------4--4444444444444444444444444444444444444444-----------4-|
d-0---2---2---4--4444444444444444444444444444444444444444-----------4-|
a-0---0---2---2--2222222222222222222222222222222222222222-----------2-|
E---------------------------------------------------------------------|
Добавлено: 28.08.2013
Другие материалы по этой песне:
  • Аккорды и текст

Страница создана 28.08.2013
http://primanota.ru/misc-unsigned-bands/crash-unlock-the-shackles-chords.htm
Привет, Гость.
Предлагаем пройти революционный курс по гитаре.
Подарок от PrimaNota.Ru, забирай!