PrimaNota.ru - самый крупный в мире бесплатный архив песенных текстов, аккордов, табулатур и нот


Misc Unsigned Bands - Cffo - Her Best Friend - бас-таба, видео

Регистрация Запомнить меня
Войти через:  Facebook Google Twitter Vk Yandex Mail.ru

Misc Unsigned Bands - Cffo - Her Best Friend - бас-таба, видео

Печатать
Просмотров: 56
Уроки эстрадного вокала в Санкт-Петербурге
-------------------------------------------------------------------------------
			     SONG NAME - Her Best Friend
-------------------------------------------------------------------------------

Tabbed By : DEWDADREW
e-mail: 

Tuning:
Intro
G|-------------------------------------------------------------------------|
D|-------------------------------------------------------------------------|
A|-0-4-2-0-----------------------------------------------------------------|
E|-------------------------------------------------------------------------|
Pre Pre Pre Chorus
G|-------------------------------------------------------------------------|
D|-------------------------------------------------------------------------|
A|-----------------0-0-0-0-2-2-2-2-4-4-4-4-2-2-0-0-------------------------|
E|-2-2-2-2-2-2-2-2---------------------------------------------------------|
Pre Pre Chorus
G|-------------------------------------------------------------------------|
D|-------------------------------------------------------------------------|
A|---------0-----------x2--------------------------------------------------|
E|-0-----------0-----------------------------------------------------------|
Pre Chorus
G|-------------------------------------------------------------------------|
D|-------------------------------------------------------------------------|
A|-------------------------------------(4 Measures)------------------------|
E|-2-2-2-2-2-2-2-2-2-2-2-2-2-2-2-2-----------------------------------------|
Chorus
G|-------------------------------------------------------------------------|
D|-------------------------------------------------------------------------|
A|-----------------0-0-0-0-4-4-2-2---x2------------------------------------|
E|-2-2-2-2-2-2-2-2---------------------------------------------------------|
Verse
G|-------------------------------------------------------------------------|
D|-------------------------------------------------------------------------|
A|-------0-0-0-4-4-4-2-2-2--------x4---------------------------------------|
E|-2-2-2-------------------------------------------------------------------|

G|-------------------------------------------------------------------------|
D|-------------------------------------------------------------------------|
A|-------------------------------------------------------------------------|
E|-------------------------------------------------------------------------|
Bridge Into Chorus
G|-------------------------------------------------------------------------|
D|-------------------------------------------------------------------------|
A|-----0-4-2---------------------------------------------------------------|
E|-2-2---------------------------------------------------------------------|
Interlude
G|-------------------------------------------------------------------------|
D|-------------------------------------------------------------------------|
A|-------------------------------------------------------------------------|
E|-2-2-0-0-4-4-0-0------2-2-2-2-2-2-2-2-0-0-0-0-0-0-0-0-4-4-4-4-4-4-4-4----|

Thats it! enjoy!
| /  slide up
| \  slide down
| h  hammer-on
| p  pull-off
| ~  vibrato
| +  harmonic
| x  Mute note
===============================================================================
Добавлено: 17.01.2014
Другие материалы по этой песне:
  • Аккорды и текст

Страница создана 17.01.2014
http://primanota.ru/misc-unsigned-bands/cffo-her-best-friend-chords.htm
Привет, Гость.
Предлагаем пройти революционный курс по гитаре.
Подарок от PrimaNota.Ru, забирай!