PrimaNota.ru - самый крупный в мире бесплатный архив песенных текстов, аккордов, табулатур и нот


Misc Unsigned Bands - Confide - Cant See The Forest For The Trees - бас-таба

Регистрация Запомнить меня
Войти через:  Facebook Google Twitter Vk Yandex Mail.ru

Misc Unsigned Bands - Confide - Cant See The Forest For The Trees - бас-таба

Печатать
Просмотров: 37
F |--------------------------------------------------------------------------|
C |--------------------------------------------------------------------------|
G |--------------------------------------------------------------------------|
C |--------------------------------------------------------------------------|

Intro

F |--------------------------------------------------------------------------|
C |--------------------------------------------------------------------------|
G |--------------------------------------------------------------------------|
C |-7-7-7-7-7-7-7-7-7-7-7-7-7-7-7-7------------------------------------------|

Verse

F |--------------------------------------------------------------------------|
C |--------------------------------------------------------------------------|
G |--------------------------------------------------------------------------|
C |-0-0-0-0--0-0-0--0-0-0-0-0-2/8-8-8-8-8--8-8-8--8-8-8-10-10-10-------------|

Chorus

F |--------------------------------------------------------------------------|
C |--------------------------------------------------------------------------|
G |--------------------------------------------------------------------------|
C |-0--7--0--7-0-7--0--7--0--7-0-7--7--0--7--0-7-0--7--0--7--0--7-0----------|

Bridge

F |-------------------------------------------------------------------------------|
C |-------------------------------------------------------------------------------|
G |-------------------------------------------------------------------------------|
C |-0-10-8-8-8-8-8-8-8-8-0-10-8-8-8-8-10-8-8-8-8-8-8-8-8-0-3/8-8-8-8-8-8-8-8-8-10-|

Intro extended

F |--------------------------------------------------------------------------|
C |--------------------------------------------------------------------------|
G |--------------------------------------------------------------------------|X4
C |-7-7-7-7-7-7-7-7-7-7-7-7-7-7-7-7------------------------------------------|

Verse

F |--------------------------------------------------------------------------|
C |--------------------------------------------------------------------------|
G |--------------------------------------------------------------------------|
C |-0-0-0-0--0-0-0--0-0-0-0-0-2/8-8-8-8-8--8-8-8--8-8-8-10-10-10-------------|

Chorus

F |--------------------------------------------------------------------------|
C |--------------------------------------------------------------------------|
G |--------------------------------------------------------------------------|
C |-0--7--0--7-0-7--0--7--0--7-0-7--7--0--7--0-7-0--7--0--7--0--7-0----------|

Breakdown

F |--------------------------------------------------------------------------|
C |--------------------------------------------------------------------------|
G |--------------------------------------------------------------------------|
C |-2-2-0-2-0-2-0------2-2-0-2-0-2-0-------2-2-2-2-2-2-2-2-2-2-2-2-2-2-2-2-2-|

F |--------------------------------------------------------------------------|
C |--------------------------------------------------------------------------|
G |--------------------------------------------------------------------------|
C |-2-2-0-2-0-2-0-2-2-0-2-0-2-0-2-2-0-2-0-2-0-2-2-0-2-0-2-0------------------|X2



Добавлено: 22.08.2013
Другие материалы по этой песне:
  • Аккорды и текст

Страница создана 22.08.2013
http://primanota.ru/misc-unsigned-bands/confide-cant-see-the-forest-for-the-trees-chords.htm
Привет, Гость.
Предлагаем пройти революционный курс по гитаре.
Подарок от PrimaNota.Ru, забирай!