PrimaNota.ru - самый крупный в мире бесплатный архив песенных текстов, аккордов, табулатур и нот


Misc Unsigned Bands - Collateral Damage - Conceited - таба, бас-таба

Регистрация Запомнить меня
Войти через:  Facebook Google Twitter Vk Yandex Mail.ru

Misc Unsigned Bands - Collateral Damage - Conceited - таба, бас-таба

Печатать
Просмотров: 46
Уроки эстрадного вокала в Санкт-Петербурге
-----------------------------------------------------------------------------
                             Conceited- Collateral Damage
-----------------------------------------------------------------------------
Tabbed by: FoxyGramps5543
Email: otisrex1993@aol.com

Tuning: Standard
  Em          Em           C           C           Em
e|-0--0--2--3--0--0--2--3--3--3--5--6--3--3--5--6--0--0--2--3--|
B|-0-----------0-----------1-----------1-----------0-----------|
G|-0-----------0-----------0-----------0-----------0-----------|
D|-2-----------2-----------2-----------2-----------2-----------|
A|-2-----------2-----------3-----------3-----------2-----------|
E|-0-----------0-----------------------------------0-----------|

  
e|-------------------------------------------------------------|
B|-------------------------------------------------------------|
G|-------------------------------------------------------------|
D|-7--6--4--4--4--4--4--4--7--6--4--4--4--4--4--4--------------|
A|-7--6--4--4--4--4--4--4--7--6--4--4--4--4--4--4--------------|
E|-5--4--2--2--2--2--2--2--5--4--2--2--2--2--2--2--------------|
        I am Conceited           I have no place to go

e|-------------------------------------------------------------|
B|-------------------------------------------------------------|
G|-------------------------------------------------------------|
D|-7--6--4--4--4--4--4--4--7--6--4--4--4--4--4--4--------------|
A|-7--6--4--4--4--4--4--4--7--6--4--4--4--4--4--4--------------|
E|-5--4--2--2--2--2--2--2--5--4--2--2--2--2--2--2--------------|
        I have nobody             That is what I hear so

e|-------------------------------------------------------------|
B|-------------------------------------------------------------|
G|-------------------------------------------------------------|
D|-7--6--4--4--4--4--7--6--4--4--4--4--7--6--4--4--4--4--------|
A|-7--6--4--4--4--4--7--6--4--4--4--4--7--6--4--4--2--2--------|
E|-5--4--2--2--2--2--5--4--2--2--2--2--5--4--2--2--2--2--------|
         I am            Conceited           With no
e|-------------------------------------------------------------|
B|-------------------------------------------------------------|
G|-------------------------------------------------------------|
D|-7--6--4--4--4--4--4--3--2--2--2--2--5--5--5--5--5--5--5--5--|
A|-7--6--4--4--4--4--4--3--2--2--2--2--5--5--5--5--5--5--5--5--|
E|-5--4--2--2--2--2--2--1--0--0--0--0--3--3--3--3--3--3--3--3--|
         Place to go       People say    I am all i care about

e|-------------------------------------------------------------|
B|-------------------------------------------------------------|
G|-------------------------------------------------------------|
D|-5--4--2--2--2--2--5--5--5--5--5--5--4--3-------3------------|
A|-5--4--2--2--2--2--5--5--5--5--5--5--4--3-------3------------|
E|-3--2--0--0--0--0--3--3--3--3--3--3--2--1-------1------------|
     As they walk away  I hear them say   I'm Conceited

e|-------------------------------------------------------------|
B|-------------------------------------------------------------|
G|-------------------------------------------------------------|
D|2--2--2-2-5-5--5--5--5--5--5--5--4--2--2--2--2--5-5-5-5-4-3-3|
A|2--2--2-2-5-5--5--5--5--5--5--5--4--2--2--2--2--5-5-5-5-4-3-3|
E|0--0--0-0-3-3--3--3--3--3--3--3--2--0--0--0--0--3-3-3-3-2-1-1|
 All you see is the screwed up side of me and what you see  Is conceited
         
e|-------------------------------------------------------------|
B|-------------------------------------------------------------|
G|-------------------------------------------------------------|
D|2--2--2-2-5-5--5--5--5--5--5--5--4--2--2--2--2--5-5-5-5-5-5--|
A|2--2--2-2-5-5--5--5--5--5--5--5--4--2--2--2--2--5-5-5-5-5-5--|
E|0--0--0-0-3-3--3--3--3--3--3--3--2--0--0--0--0--3-3-3-3-3-3--|
 What you see is the dark side of me  And what you think Is allllll truuuuue

e|-------------------------------------------------------------|
B|-------------------------------------------------------------|
G|-------------------------------------------------------------|
D|-7--6--4--4--4--4--4--4--7--6--4--4--4--4--4--4--------------|
A|-7--6--4--4--4--4--4--4--7--6--4--4--4--4--4--4--------------|
E|-5--4--2--2--2--2--2--2--5--4--2--2--2--2--2--2--------------|
        I am Conceited           I have no place to go

e|-------------------------------------------------------------|
B|-------------------------------------------------------------|
G|-------------------------------------------------------------|
D|-7--6--4--4--4--4--4--4--7--6--4--4--4--4--4--4--------------|
A|-7--6--4--4--4--4--4--4--7--6--4--4--4--4--4--4--------------|
E|-5--4--2--2--2--2--2--2--5--4--2--2--2--2--2--2--------------|
        I have nobody             That is what I hear so

e|-------------------------------------------------------------|
B|-------------------------------------------------------------|
G|-------------------------------------------------------------|
D|-7--6--4--4--4--4--7--6--4--4--4--4--7--6--4--4--4--4--------|
A|-7--6--4--4--4--4--7--6--4--4--4--4--7--6--4--4--2--2--------|
E|-5--4--2--2--2--2--5--4--2--2--2--2--5--4--2--2--2--2--------|
         I am            Conceited           With no
e|----------------------0-0-2-3-0-0-2-3-3-3-5-6-3-3-5-6-0-0-2-3|
B|----------------------0-------0-------1-------1-------0------|
G|----------------------0-------0-------0-------0-------0------|
D|-7--6--4--4--4--4-4-3-2-------2-------2-------2-------2------|
A|-7--6--4--4--4--4-4-3-2-------2-------3-------3-------2------|
E|-5--4--2--2--2--2-2-1-0-------0-----------------------0------|
         Place to go      





| /  slide up
| \  slide down
| h  hammer-on
| p  pull-off
| ~  vibrato
| +  harmonic
| x  Mute note
=============================================================================
Добавлено: 24.11.2013
Другие материалы по этой песне:
  • Аккорды и текст

Страница создана 24.11.2013
http://primanota.ru/misc-unsigned-bands/collateral-damage-conceited-chords.htm
Привет, Гость.
Предлагаем пройти революционный курс по гитаре.
Подарок от PrimaNota.Ru, забирай!