PrimaNota.ru - самый крупный в мире бесплатный архив песенных текстов, аккордов, табулатур и нот


Misc Unsigned Bands - Chrono Trigger - Battle Music - бас-таба, видео

Регистрация Запомнить меня
Войти через:  Facebook Google Twitter Vk Yandex Mail.ru

Misc Unsigned Bands - Chrono Trigger - Battle Music - бас-таба, видео

Печатать
Просмотров: 41
Chrono Trigger Battle Music
1995
Bass Tab by Zach C.



G|--------------------------------5-6-7------|
D|------3-------3-------3--------------------|
A|---5-----5--5---5--5-----5---5-------------|
E|-------------------------------------------|

G|---------------------------7-5-------------|
D|------3-------3-------3-----------5-4-3----|
A|---5-----5--5---5--5-----5-----------------|
E|-------------------------------------------|

Chrono Trigger is one of the greatest games ever!!
This is the nifty little bass line in the battle music.
Please rate!!
Добавлено: 10.02.2014
Другие материалы по этой песне:
  • Аккорды и текст

Страница создана 10.02.2014
http://primanota.ru/misc-unsigned-bands/chrono-trigger-battle-music-chords.htm
Привет, Гость.
Предлагаем пройти революционный курс по гитаре.
Подарок от PrimaNota.Ru, забирай!