PrimaNota.ru - самый крупный в мире бесплатный архив песенных текстов, аккордов, табулатур и нот


Misc Unsigned Bands - Beyond The Shadow - Evil Has No Boundaries - бас-таба

Регистрация Запомнить меня
Войти через:  Facebook Google Twitter Vk Yandex Mail.ru

Misc Unsigned Bands - Beyond The Shadow - Evil Has No Boundaries - бас-таба

Печатать
Просмотров: 52
will
     H.           E  E             H.           E  E     Q    Q    Q    Q     
G||---------------------|-------|---------------------|----------------------|
D||---------------------|-------|---------------------|----------------------|
A||---------------------|-------|---------------------|----------------------|
E||---------------0-----|-------|---------------0-----|-------0---------0----|


  Q    Q    Q    Q       Q    Q    S S E  E  E       E  E  S S E  E  E  S S E   
----------------------|-------------------------||-----------------------------|
----------------------|-------------------------||*----------------------------|
----------------------|------------0-4-7--3--6--||*--1--1--0-0-0--1--1--1-1-1--|
-------0---------0----|-------0-----------------||-----------------------------|


  E  E  S S E  S S E  E  E   3x  E  E  S S E  E  E  S S E   
-----------------------------||----------------------------|
----------------------------*||----------------------------|
--1--1--0-0-0--0-4-7--3--6--*||--1--1--0-0-0--1--1--1-1-1--|
-----------------------------||----------------------------|


  E  E  S S E  S S E  E  E     E  E  H.                      W                 
----------------------------|---------------------|-------|-------------------|
----------------------------|---------------------|-------|-------------------|
--1--1--0-0-0--0-4-7--------|---------------------|-------|-------------------|
----------------------6--3--|--0------------------|-------|--0----------------|


  Q    Q    Q    E  E       S S S S E  S S S S Q    E   
-----------------------||------------------------------|
-----------------------||*-----------------------------|
-----------------------||*----------1----------1----1--|
--0----0----0----3--0--||---0-0-0-0----0-0-0-0---------|


  S S S S E  S S S S Q    E     S S S S E  S S S S Q    E   
-----------------------------|-----------------------------|
-----------------------------|-----------------------------|
----------1----------1----4--|----------1----------1----1--|
--0-0-0-0----0-0-0-0---------|--0-0-0-0----0-0-0-0---------|


  S S S S E  S S S S E  E  E     Q.     Q.     Q       H.           E  E   
------------------------------|---------------------|---------------------|
------------------------------|---------------------|---------------------|
----------1----------1--------|--4------3------1----|--L------------1--3--|
--0-0-0-0----0-0-0-0----3--0--|---------------------|---------------------|


                                                 TP         TP           TP  
  Q.     Q.     Q       H.           E  E        E   E   E  Q     E   E  E   
---------------------|----------------------||------------------------------|
---------------------|---------------------*||*-----10--13-------13--16-----|
--4------3------1----|--0------------1--0--*||*--0----------0------------0--|
---------------------|----------------------||------------------------------|


  TP         TP           TP       TP         TP           TP  
  E   E   E  Q     E   E  E        E   E   E  Q     E   E  E   
-----11--14-------14--17------||------------------------------|
-----------------------------*||*-----13--16-------16--19-----|
--0----------0------------0--*||*--0----------0------------0--|
------------------------------||------------------------------|


  TP         TP           TP                            
  E   E   E  Q     E   E  E       H        E  E  Q      
-----14--17-------17--20------||-----------------------|
-----------------------------*||-----------------------|
--0----------0------------0--*||--1--------------------|
------------------------------||-----------0-----7\----|


    S S S S E  S S S S Q    E     S S S S E  S S S S Q    E   
|------------------------------|-----------------------------|
|*-----------------------------|-----------------------------|
|*----------1----------1----1--|----------1----------1----4--|
|---0-0-0-0----0-0-0-0---------|--0-0-0-0----0-0-0-0---------|


  S S S S E  S S S S Q    E     S S S S E  S S S S E  E  E   
-----------------------------|------------------------------|
-----------------------------|------------------------------|
----------1----------1----1--|----------1----------1--------|
--0-0-0-0----0-0-0-0---------|--0-0-0-0----0-0-0-0----3--0--|


  Q.     Q.     Q       H.           E  E     Q.     Q.     Q     
---------------------|---------------------|---------------------|
---------------------|---------------------|---------------------|
--4------3------1----|--L------------1--3--|--4------3------1----|
---------------------|---------------------|---------------------|


                           TP         TP           TP  
  H.           E  E        E   E   E  Q     E   E  E   
----------------------||------------------------------|
---------------------*||*-----10--13-------13--16-----|
--0------------1--0--*||*--0----------0------------0--|
----------------------||------------------------------|


  TP         TP           TP       TP         TP           TP  
  E   E   E  Q     E   E  E        E   E   E  Q     E   E  E   
-----11--14-------14--17------||------------------------------|
-----------------------------*||*-----13--16-------16--19-----|
--0----------0------------0--*||*--0----------0------------0--|
------------------------------||------------------------------|


  TP         TP           TP       TP      TP        TP  
  E   E   E  Q     E   E  E        E  Q    Q    Q    E   
-----14--17-------17--20------||------------------------|
-----------------------------*||*-----------------------|
--0----------0------------0--*||*--0-------0---------0--|
------------------------------||------------------------|


  TP      TP                                                  
  E  Q    Q    E   Q        S S E  S S  E  S S  E  S S  E     
-------------------------|----------------------------------||
-------------------------|---------------------10------13--*||
--0-------0-------12\----|--0-0-9--0-0-12--0-0-----0-0-----*||
-------------------------|----------------------------------||


                                     TP                  TP                
   E  S S  E  S S  E  S S  E  S S    W                   W                 
------------------17------20------|-------------------|-------------------|
--16------19----------------------|-------------------|-------------------|
------0-0-----0-0-----0-0-----0-0-|--7----------------|--5----------------|
----------------------------------|-------------------|-------------------|


  TP                  TP                  TP                  TP                
  W                   W                   W                   W                 
-------------------|-------------------|--9----------------|--7----------------|
-------------------|-------------------|-------------------|-------------------|
--3----------------|--2----------------|-------------------|-------------------|
-------------------|-------------------|-------------------|-------------------|


  TP                  TP                    TP                
  W                   W                     W                 
--5----------------|--4----------------||--------------------|
-------------------|-------------------||*--7----------------|
-------------------|-------------------||*-------------------|
-------------------|-------------------||--------------------|


  TP                                                    TP                
  W                   S S E  S S E   S  S E  S S E      W                 
-------------------|-------------------------7-7----|--------------------|
--9----------------|--7-7----9-9----10-10-----------|--10----------------|
-------------------|--------------------------------|--------------------|
-------------------|--------------------------------|--------------------|


  TP                    TP                                                      
  W                     H.            Q        S S E   S  S E   S  S E  S S E   
--------------------||----------------------|---------------------------9-9----|
--9----------------*||--9------------12\----|--9-9----10-10----12-12-----------|
-------------------*||----------------------|----------------------------------|
--------------------||----------------------|----------------------------------|


  S S E   S  S E   S  S E  S S E      S  S E   S  S E  S S E   S  S E   
---------------------------9-9----|--12-12----11-11----9-9-------------|
--9-9----10-10----12-12-----------|---------------------------12-12----|
----------------------------------|------------------------------------|
----------------------------------|------------------------------------|


  S S E   S  S E   S  S E  S S E     S S E   S  S E   S  S E  S S E   
--9-9-----------------------------|---------------------------9-9----|
---------12-12----10-10----9-9----|--9-9----10-10----12-12-----------|
----------------------------------|----------------------------------|
----------------------------------|----------------------------------|


  S S E   S  S E   S  S E  S S E      S  S E   S  S E  S S E   S  S E   
---------------------------9-9----|--12-12----11-11----9-9-------------|
--9-9----10-10----12-12-----------|---------------------------12-12----|
----------------------------------|------------------------------------|
----------------------------------|------------------------------------|


                                     TP                  TP                
  S S E   S  S E  S S E   S  S E     W                   W                 
--9-9-------------9-9----11-11----|-------------------|-------------------|
---------12-12--------------------|-------------------|-------------------|
----------------------------------|--7----------------|--5----------------|
----------------------------------|-------------------|-------------------|


  TP                  TP                  TP                  TP                
  W                   W                   W                   W                 
-------------------|-------------------|--9----------------|--7----------------|
-------------------|-------------------|-------------------|-------------------|
--3----------------|--2----------------|-------------------|-------------------|
-------------------|-------------------|-------------------|-------------------|


  TP                  TP                  TP                  TP                
  W                   W                   W                   W                 
--5----------------|--4----------------|-------------------|-------------------|
-------------------|-------------------|-------------------|-------------------|
-------------------|-------------------|--7----------------|--5----------------|
-------------------|-------------------|-------------------|-------------------|


  TP                  TP                  TP                  TP                
  W                   W                   W                   W                 
-------------------|-------------------|--9----------------|--7----------------|
-------------------|-------------------|-------------------|-------------------|
--3----------------|--2----------------|-------------------|-------------------|
-------------------|-------------------|-------------------|-------------------|


  TP                  TP                                    
  W                   W                   W                 
--5----------------|--4----------------|-------------------|
-------------------|-------------------|-------------------|
-------------------|-------------------|--7----------------|
-------------------|-------------------|--0----------------|


            |-3-|                                           
  Q    Q    S S S E  E  E     Q.      Q.         H          
--9------------------------|------------------|------------|
-------9-------------------|------------------|------------|
---------------------------|--7\------3\------|------------|
------------0-0-0-0--0-----|------------------|--5/--------|


  E  E  S S E  Q    Q       W                  
-------------------------|-------------------||
-------------------------|-------------------||
--1--1--0-0-0--4----3----|-------------------||
-------------------------|--0----------------||




Duration Legend
---------------
W - whole
H - half
Q - quarter
E - 8th
S - 16th
T - 32nd
X - 64th
. - note dotted
|-n-|  - n-tuplets


Tablature Legend
----------------
L - tied note
x - dead note
g - grace note
(n) - ghost note
> - accentuded note
NH - natural harmonic
AH - artificial harmonic
TH - tapped harmonic
SH - semi harmonic
PH - pitch harmonic
h - hammer on
p - pull off
b - bend
br - bendRelease
pb - preBend
pbr - preBendRelease
brb - bendReleaseBend
\n/ - tremolo bar dip
\n - tremolo bar dive
-/n - tremolo bar Release up
/n\ - tremolo bar inverted dip
/n - tremolo bar return
-\n - tremolo bar Release down
S - shift slide
s - legato slide
/ -  slide into from below or out of upwards
\ -  slide into from above or out of downwards
~ - vibrato
W - wide vibrato
tr - trill
TP - tremolo picking
T - tapping
S - slap
P - pop
< - fade in
^ - brush up
v - brush down
Добавлено: 24.10.2013
Другие материалы по этой песне:
  • Аккорды и текст

Страница создана 24.10.2013
http://primanota.ru/misc-unsigned-bands/beyond-the-shadow-evil-has-no-boundaries-chords.htm
Привет, Гость.
Предлагаем пройти революционный курс по гитаре.
Подарок от PrimaNota.Ru, забирай!