PrimaNota.ru - самый крупный в мире бесплатный архив песенных текстов, аккордов, табулатур и нот


Misc Unsigned Bands - Burn Halo - Dirty Little Girl - бас-таба, видео

Регистрация Запомнить меня
Войти через:  Facebook Google Twitter Vk Yandex Mail.ru

Misc Unsigned Bands - Burn Halo - Dirty Little Girl - бас-таба, видео

Печатать
Просмотров: 67
Уроки эстрадного вокала в Санкт-Петербурге
This is song i heard recently and im sure it may have minor mistakes but the main idea 
the song is here.
im positive the prechorus may be a bit off.
PLease leave me your comments whether positive or negative(positive preferred)  and 
this fun song!!!


Main Riff
G:----------------------------------------------------------------|
D:----------------------------------------------------------------|
A:----------------------------------------------------------3-5-6-|
D:-0--0-10-0-10-0-0-6-5-3-0-3-5-6--0--0-10-0-10-0-0-6-5-3-0-------|

Verse:

G:-----------------------------------|
D:-----------------------------------|
A:-----------------------------------|
D:--0~------0~------0--6-5-3-0-3-5---|

Prechorus:

G:-------------------------------------------------------|
D:-------------------------------------------------------| play as many times
A:-------------------------------------------------------| as needed same with
D:-5-5-5-5-5-5-3-3-3-3-3-3-5-5-5-5-5-5-10-10-10-10-10-10-| the strumming

Chorus:
G:--------------------------------------------------------------------------|
D:--------------------------------------------------------------------------|
A:---------------------3-3-3-3-3-3-3-3-3-3----------------------------------|
D:-0-0-0-0-0-0-0-0-0-0----------------------5-5-5-5-5-5-5-5-5-5-5-x-x-x-x-x-|

G:-----------------------------------------------------------------------------|
D:-----------------------------------------------------------------------------|
A:-----------------------------------------------------------------------------|
D:-0-0-0-0-0-0-0-0-0-0-3-3-3-3-3-3-3-3-3-3-3-3-5-5-5-5-5-5-5-5-5-3-3-3-3-3-3-3-|

thats pretty much it enjoy!!!
and please remember in parts such as the chorus and the prechorus
i have not put the actual number of how many times
you need to play each note. im sure u can figure that out
yourself!:)

www.myspace.com/burnhalo

have fun!!
Добавлено: 30.12.2013
Другие материалы по этой песне:
  • Аккорды и текст

Страница создана 30.12.2013
http://primanota.ru/misc-unsigned-bands/burn-halo-dirty-little-girl-chords.htm
Привет, Гость.
Предлагаем пройти революционный курс по гитаре.
Подарок от PrimaNota.Ru, забирай!