PrimaNota.ru - самый крупный в мире бесплатный архив песенных текстов, аккордов, табулатур и нот


Misc Unsigned Bands - Bl4nc - Back From Rehab - бас-таба

Регистрация Запомнить меня
Войти через:  Facebook Google Twitter Vk Yandex Mail.ru

Misc Unsigned Bands - Bl4nc - Back From Rehab - бас-таба

Печатать
Просмотров: 40
INTRO x2 

|------------------------------------------------------------------| 
|------------------------------------------------------------------| 
|------------------------------------------------------------------| 
|---5-5-------------3-3-------------1-1-------------3-3------------| 


VERSE x4 

|------------------------------------------------------------------| 
|------------------------------------------------------------------| 
|------------------------------------------------------------------| 
|---5-5-5-5-5-5-5-5-3-3-3-3-3-3-3-3-7-7-7-7-7-7-7-7-1-2-3-4-2-3-4-5| 


BRIDGE 

|----------------------------------------------------------------------| 
|----------------------------------------------------------------------| 
|----------------------------------------------------------------------| 
|---3-3-3-3-5-5-5-5-3-3-3-3-5-5-5-5-3-3-3-3-5-5-5-5-3-3-3-3-7-7-7-7---\| 

CHORUS 

|-----------------------------------| 
|-----------------------------------| 
|-------------------3-3-3-3-0-0-0-0-| 
|---0-0-0-0-3-3-3-3-----------------| 

|-----------------------------------| 
|-----------------------------------| 
|-------------------3-3-3-3-5-5-5-5-| 
|---0-0-0-0-3-3-3-3-----------------| 

|-----------------------------------| 
|-----------------------------------| 
|-------------------3-3-3-3-0-0-0-0-| 
|---0-0-0-0-3-3-3-3-----------------| 

|-----------------------------------| 
|-----------------------------------| 
|-------------------5-5-5-5-5-5-5-5-| 
|---0-0-0-0-3-3-3-3-----------------| 

FILL x2 

|------------------------------------------------------------------| 
|------------------------------------------------------------------| 
|------------------------------------------------------------------| 
|---5-5-------------3-3-------------1-1-------------3-3------------| 

VERSE x4 

|------------------------------------------------------------------| 
|------------------------------------------------------------------| 
|------------------------------------------------------------------| 
|---5-5-5-5-5-5-5-5-3-3-3-3-3-3-3-3-7-7-7-7-7-7-7-7-1-2-3-4-2-3-4-5| 


BRIDGE 

|----------------------------------------------------------------------| 
|----------------------------------------------------------------------| 
|----------------------------------------------------------------------| 
|---3-3-3-3-5-5-5-5-3-3-3-3-5-5-5-5-3-3-3-3-5-5-5-5-3-3-3-3-7-7-7-7---\| 

CHORUS 

|-----------------------------------| 
|-----------------------------------| 
|-------------------3-3-3-3-0-0-0-0-| 
|---0-0-0-0-3-3-3-3-----------------| 

|-----------------------------------| 
|-----------------------------------| 
|-------------------3-3-3-3-5-5-5-5-| 
|---0-0-0-0-3-3-3-3-----------------| 

|-----------------------------------| 
|-----------------------------------| 
|-------------------3-3-3-3-0-0-0-0-| 
|---0-0-0-0-3-3-3-3-----------------| 

|-----------------------------------| 
|-----------------------------------| 
|-------------------5-5-5-5-5-5-5-5-| 
|---0-0-0-0-3-3-3-3-----------------| 




FILL x2 

|------------------------------------------------------------------| 
|------------------------------------------------------------------| 
|------------------------------------------------------------------| 
|---5-5-------------3-3-------------1-1-------------3-3------------| 

GUITAR SOLO
|--------------------------------------------| 
|--------------------------------------------| 
|--------------------------------------------| 
|---5-5-----3-3-----1-1-----3-3--------------| 

|--------------------------------------------| 
|--------------------------------------------| 
|--------------------------------------------| 
|---5-5-----3-3-----1-1-----3-3--------------| 

|--------------------------------------------| 
|--------------------------------------------| 
|--------------------------------------------| 
|---5-5-5-5-3-3-3-3-1-1-1-1-3-3-3-3----------| 

Repeat until the end of the guitar solo


DRUM SOLO 

BASS SOLO 

|-------------------------------|  
|-------5-7----5-7---5-7---5-7--| 
|----5-7----5-7---5-7---5-7-----| 
|-------------------------------|

|-------------------------------| 
|-------5-7----5-7---5-7---5-7--| 
|----5-7----5-7---5-7---5-7-----| 
|-------------------------------|

|-------------------------------------------------------------------| 
|---7-7-5-4-7-7-5-4-7-7-5-4-7-7-5-4-7-7-5-4-7-7-5-4-7-7-5-4-7-7-5-4-| 
|-------------------------------------------------------------------| 
|-------------------------------------------------------------------| 

|-------------------------------------------------------------------| 
|---9-9-7-6-9-9-7-6-9-9-7-6-9-9-7-6-9-9-7-6-9-9-7-6-9-9-7-6-9-9-7-6-| 
|-------------------------------------------------------------------| 
|-------------------------------------------------------------------| 

|-----------------------------------------------| 
|---12-12-10-9-12-12-10-9-12-12-10-9-12-12-10-9-| 
|-----------------------------------------------| 
|-----------------------------------------------| 

|-----------------------------------------------| 
|---12-12-10-9-12-12-10-9-12-12-10-9-12-12-10-9-| 
|-----------------------------------------------| 
|-----------------------------------------------| 

|-----7------------|7-5-4-------------------------|-----------| 
|-------7-5-7---5-7|------7-5-4-------------------|-----------| 
|-------------7----|------------7-5-4-------------|-----------| 
|---5--------------|------------------5h7p54-2-10~|8~-10~-8-7~| 
                                                       ^x2 
|-----7-------------|------------------------18-18-18-18-17-17-17-17-| 
|-------7-5-7---5-7\|14-14-14-14-16-16-16-16-18-18-18-18-17-17-17-17-| 
|-------------7-----|------------------------------------------------| 
|---5---------------|------------------------------------------------| 

|------------------------18-18-18-18-19-19-19-19-| 
|14-14-14-14-16-16-16-16-18-18-18-18-19-19-19-19-| 
|------------------------------------------------|  
|------------------------------------------------|     


FILL x2 

|------------------------------------------------------------------| 
|------------------------------------------------------------------| 
|------------------------------------------------------------------| 
|---5-5-------------3-3-------------1-1-------------3-3------------| 

VERSE x4 

|------------------------------------------------------------------| 
|------------------------------------------------------------------| 
|------------------------------------------------------------------| 
|---5-5-5-5-5-5-5-5-3-3-3-3-3-3-3-3-7-7-7-7-7-7-7-7-1-2-3-4-2-3-4-5| 


BRIDGE 

|----------------------------------------------------------------------| 
|----------------------------------------------------------------------| 
|----------------------------------------------------------------------| 
|---3-3-3-3-5-5-5-5-3-3-3-3-5-5-5-5-3-3-3-3-5-5-5-5-3-3-3-3-7-7-7-7---\| 


CHORUS 

|-----------------------------------| 
|-----------------------------------| 
|-------------------3-3-3-3-0-0-0-0-| 
|---0-0-0-0-3-3-3-3-----------------| 

|-----------------------------------| 
|-----------------------------------| 
|-------------------3-3-3-3-5-5-5-5-| 
|---0-0-0-0-3-3-3-3-----------------| 

|-----------------------------------| 
|-----------------------------------| 
|-------------------3-3-3-3-0-0-0-0-| 
|---0-0-0-0-3-3-3-3-----------------| 

|-----------------------------------| 
|-----------------------------------| 
|-------------------5-5-5-5-5-5-5-5-| 
|---0-0-0-0-3-3-3-3-----------------| 

|------------------------------------------------------------------| 
|------------------------------------------------------------------| 
|------------------------------------------------------------------| 
|---5-5-------------3-3-------------1-1-------------3-3------------| 

|-------| 
|-------| 
|-------| END ON THAT NOTE, MUTE STRAIGHT AFTER. 
|---5x--| 




GUITAR LEGEND 

b- bend 
rb- release bend 
x- mute 
h- hammer on 
p- pull off 
~- vibrato 
\- slide down 
Добавлено: 05.02.2014
Другие материалы по этой песне:
  • Аккорды и текст

Страница создана 05.02.2014
http://primanota.ru/misc-unsigned-bands/bl4nc-back-from-rehab-chords.htm
Привет, Гость.
Предлагаем пройти революционный курс по гитаре.
Подарок от PrimaNota.Ru, забирай!