PrimaNota.ru - самый крупный в мире бесплатный архив песенных текстов, аккордов, табулатур и нот


Misc Unsigned Bands - Beyond The Shadow - Political Justice - бас-таба

Регистрация Запомнить меня
Войти через:  Facebook Google Twitter Vk Yandex Mail.ru

Misc Unsigned Bands - Beyond The Shadow - Political Justice - бас-таба

Печатать
Просмотров: 43
will
     H        H           H        H           H        H         
G||--------------------|--------------------|--------------------|
D||--------------------|--------------------|--------------------|
A||--------------------|--------------------|--------------------|
D||--0--------0--------|--8--------7--------|--0--------0--------|


  E  Q.     E  E   Q          S S S S S S S S S S S S S S S S  
-------------------------||-----------------------------------|
-------------------------||*----------------------------------|
------------------12\----||*----------------------------------|
--8---------7------------||---0-0-0-0-0-0-0-0-0-0-0-0-0-0-0-0-|


  S S S S S S S S S S S S S S S S      Q    Q    E  E  E  E   
-----------------------------------||---------------------7--|
----------------------------------*||------------------------|
----------------------------------*||-------5----------5-----|
--8-8-8-8-8-8-8-8-7-7-7-7-7-7-7-7--||--0---------0--0--------|


  E  S S E  E   E   S  S  E   E     Q    Q    E  E  E  E   
---------------------------------|---------------------7--|
---------------------------------|------------------------|
---------------------------------|-------5----------5-----|
--8--8-8-8--8--10--10-10-10--10--|--0---------0--0--------|


  E  S S E  E  E  S S E  E     S S S S S S S S S S S S S S S S  
----------------------------|----------------------------------|
----------------------------|----------------------------------|
----------------------------|----------------------------------|
--8--8-8-8--8--7--7-7-7--7--|--0-0-0-0-0-0-0-0-0-0-0-0-0-0-0-0-|


  S S S S S S S S S S S S S S S S    S S S S S S S S S S S S S S S S  
----------------------------------|----------------------------------|
----------------------------------|----------------------------------|
----------------------------------|----------------------------------|
--8-8-8-8-8-8-8-8-7-7-7-7-7-7-7-7-|--0-0-0-0-0-0-0-0-0-0-0-0-0-0-0-0-|


  S S S S S S S S S S S S S S S S      S S S S S S S S S S S S S S S S  
----------------------------------||-----------------------------------|
----------------------------------||*----------------------------------|
----------------------------------||*----------------------------------|
--8-8-8-8-8-8-8-8-7-7-7-7-7-7-7-7-||---0-0-0-0-0-0-0-0-0-0-0-0-0-0-0-0-|


  S S S S S S S S S S S S S S S S       Q    Q    E  E  E  E   
-----------------------------------||----------------------7--|
----------------------------------*||*------------------------|
----------------------------------*||*-------5----------5-----|
--8-8-8-8-8-8-8-8-7-7-7-7-7-7-7-7--||---0---------0--0--------|


  E  S S E  E   E   S  S  E   E     Q    Q    E  E  E  E   
---------------------------------|---------------------7--|
---------------------------------|------------------------|
---------------------------------|-------5----------5-----|
--8--8-8-8--8--10--10-10-10--10--|--0---------0--0--------|


  E  S S E  E  E  S S E  E        Q    Q    Q    Q       Q    Q    Q    Q       
-----------------------------||-----------------------|-----------------------||
----------------------------*||*----------------------|----------------------*||
----------------------------*||*----------------------|----------------------*||
--8--8-8-8--8--7--7-7-7--7---||---0----0----0----0----|--8----8----7----7-----||


   Q    Q    Q    E  E     Q    Q    Q    Q       Q     Q    Q    E   E   
--------7---------------|----------------------|-------10----------------|
*-----------------------|-------8--------------|-------------------------|
*--5---------5----5-----|----------------------|--8----------8----8------|
---------------------8--|--8---------8----8----|---------------------10--|


   Q     Q     Q     Q         Q    Q    Q    Q       Q    Q    Q    Q     
---------------------------||----------------------|----------------------|
--------10----------------*||----------------------|----------------------|
--------------------------*||----------------------|----------------------|
--10----------10----10-----||--0---------0---------|--8---------7---------|


  Q    Q    Q    Q       E  Q.     E  Q.      
----------------------|----------------------|
----------------------|----------------------|
----------------------|----------------------|
--0---------0---------|--8---------7---------|


    S S S S S S S S S S S S S S S S    S S S S S S S S S S S S S S S S    
|-----------------------------------|-----------------------------------||
|*----------------------------------|----------------------------------*||
|*----------------------------------|----------------------------------*||
|---0-0-0-0-0-0-0-0-0-0-0-0-0-0-0-0-|--8-8-8-8-8-8-8-8-7-7-7-7-7-7-7-7--||


   Q    Q    E  E  E  E     E  S S E  E   E   S  S  E   E   
----------------------7--|---------------------------------|
*------------------------|---------------------------------|
*-------5----------5-----|---------------------------------|
---0---------0--0--------|--8--8-8-8--8--10--10-10-10--10--|


  Q    Q    E  E  E  E     E  S S E  E  E  S S E  E     
---------------------7--|-----------------------------||
------------------------|----------------------------*||
-------5----------5-----|----------------------------*||
--0---------0--0--------|--8--8-8-8--8--7--7-7-7--7---||


   Q    Q    E  E  E  E     E  S S E  E  E  S S E  E     Q    Q    E  E  E  E   
-------------------------|--5--5-5-5--5--7--7-7-7--7--|------------------------|
*------------------------|----------------------------|------------------------|
*--7----7----7--7--7--7--|----------------------------|--7----7----7--7--7--7--|
-------------------------|----------------------------|------------------------|


  E  S S E  E  E  S S E  E       S S S S  S  S S S  S  S  S  S S S  S  S  
--5--5-5-5--5--4--4-4-4--4---||--9-9-9-9---------------------------------|
----------------------------*||----------12-12-9-9-----------------------|
----------------------------*||--------------------12-12-10-10-9-9-10-10-|
-----------------------------||------------------------------------------|


  W                   W                   W                 
-------------------|-------------------|-------------------|
-------------------|-------------------|-------------------|
-------------------|-------------------|-------------------|
--2----------------|--L----------------|--L----------------|


  S S E  H.             
----------------------||
----------------------||
----------------------||
--2-2-2---------------||




Duration Legend
---------------
W - whole
H - half
Q - quarter
E - 8th
S - 16th
T - 32nd
X - 64th
. - note dotted
|-n-|  - n-tuplets


Tablature Legend
----------------
L - tied note
x - dead note
g - grace note
(n) - ghost note
> - accentuded note
NH - natural harmonic
AH - artificial harmonic
TH - tapped harmonic
SH - semi harmonic
PH - pitch harmonic
h - hammer on
p - pull off
b - bend
br - bendRelease
pb - preBend
pbr - preBendRelease
brb - bendReleaseBend
\n/ - tremolo bar dip
\n - tremolo bar dive
-/n - tremolo bar Release up
/n\ - tremolo bar inverted dip
/n - tremolo bar return
-\n - tremolo bar Release down
S - shift slide
s - legato slide
/ -  slide into from below or out of upwards
\ -  slide into from above or out of downwards
~ - vibrato
W - wide vibrato
tr - trill
TP - tremolo picking
T - tapping
S - slap
P - pop
< - fade in
^ - brush up
v - brush down
Добавлено: 06.10.2013
Другие материалы по этой песне:
  • Аккорды и текст

Страница создана 06.10.2013
http://primanota.ru/misc-unsigned-bands/beyond-the-shadow-political-justice-chords.htm
Привет, Гость.
Предлагаем пройти революционный курс по гитаре.
Подарок от PrimaNota.Ru, забирай!