PrimaNota.ru - самый крупный в мире бесплатный архив песенных текстов, аккордов, табулатур и нот


Misc Unsigned Bands - Asyllex - Calling Out To My Creator - бас-таба

Регистрация Запомнить меня
Войти через:  Facebook Google Twitter Vk Yandex Mail.ru

Misc Unsigned Bands - Asyllex - Calling Out To My Creator - бас-таба

Печатать
Просмотров: 60
Band: Asyllex
Song: Calling Out To My Creator
Bass Player: Finnur Nielsen
This is my own Bass Lines
   
This Bass Tab is 100% Correct since it is my own bass lines I'm tabbing

Rest Until  1:08
G|--------------------------|
D|--------------------------|
A|--------------------------|
E|-0~--1-0~--1-0~--1-0~---1-|

Vers 1
G|--------------------------------------------------|
D|--------------------------------------------------|
A|--------------------------------------------------|
E|-0~---1-0~---1-0~---1-0~---1-0~---12/-0~---1-0~x2-|

Vers 1.5
G|------------------------------------------------------------------|
D|------------------------------------------------------------------|
A|------------------------------------------------------------7/----|
E|-6p0-0-0-000-0-0-6p-0-0-000-0-0-6p0-00-6p0-00-6p0-0-000-0-0-0#----|

Break.
G|--------------------|
D|--------------------|
A|--------------------|
E|---------5/12/0-----|Slide

Vers 2.
G|--------------------------------------------------------------|
D|--------------------------------------------------------------|
A|--------------------------------------------------------------|
E|-6p0-0-0-000-0-0-6p0-0-0-000-0-0-6p0-00-6p0-00-6p0-0-0-000-0-0|X4

Chorus Breakdown.
G|--------------------------------------------------------------|
D|--------------------------------------------------------------|
A|--------------------------------------------------------------|
E|-0~-000-0~-000-1~-111-1~-111-2~-222-2~-222-3~-333-3~-333-4/0--|X2

Chorus
G|------------------------------------------------------------|
D|------------------------------------------------------------|
A|--7p5~--5p3-------------------------------------------------|
E|------00---0-5~-555-555-555-5-6-6-0-3-5-3-0~-000-000-000-0~-|X4

Vers 3
G|--------------------------------------------------------------|
D|--------------------------------------------------------------|
A|--------------------------------------------------------------|
E|-6p0-0-0-000-0-0-6p0-0-0-000-0-0-6p0-00-6p0-00-6p0-0-0-000-0-0|X4

Chorus Breakdown 2
G|--------------------------------------------------------------|
D|--------------------------------------------------------------|
A|--------------------------------------------------------------|
E|-0~-000-0~-000-1~-111-1~-111-2~-222-2~-222-3~-333-3~-333-4/0--|

G|-----------------------------------------------------------------|
D|----------------------------------------------------------5-5-5--|
A|-----------------------------------------------------------------|
E|-0~-000-0~-000-1~-111-1~-111-2~-222-2~-222-3~-333-3~-333-3-3-3---|

Chorus 2
G|------------------------------------------------------------|
D|------------------------------------------------------------|
A|--7p5~--5p3-------------------------------------------------|
E|------00---0-5~-555-555-555-5-6-6-0-3-5-3-0~-000-000-000-0~-|X4

Break Before Solo
G|--------------------|
D|--------------------|
A|--------------------|
E|-0~-----------12/0--|

Solo Piece              These Notes on A-D-G Are Slap
G|------------------------3~----------------------5~|
D|------------------------3~----------------------5~|
A|------------------------1~----------------------3~|
E|-0-0-0-0-1-1-1-0~-0-0-0---0-0-0-0-1-1-1-0~-0-0-0--|X3

Solo Continued
G|-----------------------------------------------------------------|
D|-----------------------------------------------------------------|
A|-----------------------------------------------------------------|
E|0-000-0-000-0-0-1-111-1-111-1-1-2-222-2-222-2-2-3-333-22-1h2p1-0~|X3

Last Piece      These Are Twelves and Thirteen's not One's, Two's and Threes.
G|----------------------------------------------------------------------------|
D|----------------------------------------------------------------------------|
A|----------------------------------------------------------------------------|
E|-0/12-12-121212-12-12-12-13-13-131313-13-13/8-8-888-8-8-8-7~-777-777-777-7/-|X3

Then Fade out with a Single E
G|----------------|
D|----------------|
A|----------------|
E|-0~-------------|

         The parts where there are three notes put together are Gallops
                  You Can listen to the song Here:
              http://www.youtube.com/watch?v=eXoGDxIZcww
Добавлено: 03.06.2013
Другие материалы по этой песне:
  • Аккорды и текст

Страница создана 03.06.2013
http://primanota.ru/misc-unsigned-bands/asyllex-calling-out-to-my-creator-chords.htm
Привет, Гость.
Предлагаем пройти революционный курс по гитаре.
Подарок от PrimaNota.Ru, забирай!