PrimaNota.ru - самый крупный в мире бесплатный архив песенных текстов, аккордов, табулатур и нот


Misc Unsigned Bands - Bird Calls - Confidence Trickster - бас-таба

Регистрация Запомнить меня
Войти через:  Facebook Google Twitter Vk Yandex Mail.ru

Misc Unsigned Bands - Bird Calls - Confidence Trickster - бас-таба

Печатать
Просмотров: 75
Уроки эстрадного вокала в Санкт-Петербурге
BIRD CALLS - CONFIDENCE TRICKSTER

Guitar on It's own for two bars

G|----------------------|
D|-----2h3-2------------|
A|-3---------5-3--------|
E|----------------------|

G|---------------------------------|
D|-------------------3-3-3-3-2-2-2-|
A|-3-3-3-3-3-3-3-3-3---------------| x12
E|---------------------------------|

G|-------------------------------------|
D|-------------------------------------|
A|-------0-----------0-0-0-------0-0-0-| x3
E|-1-1-1-------1-1-1-------3-3-3-------|

G|-------------------------------------|
D|-------------------------------------|
A|-------0-----------0-0-0-------------| 
E|-1-1-1-------1-1-1-------3-3-3-3-3-3-|

G|---------------------------------------------------------|
D|-----------------------------5-7-5-----------3-------2---|
A|-----------------------------------8-8-8-8-5---5-3-3---3-|
E|---------------------------------------------------------|

G|---------------------------------------------------------|
D|---------------------7-7-7-7-5-7-5-----------3-------2---|
A|-------8-8-8-8---------------------8-8-8-8-5---5-3-3---3-| x3
E|-5-7-5---------5-7-5-------------------------------------|

G|------------------|
D|------14h15-14----|
A|-15------------17-|
E|------------------|

G|---------------------------------|
D|-------------------3-3-3-3-2-2-2-|
A|-3-3-3-3-3-3-3-3-3---------------| x7
E|---------------------------------|

G|-------------------------------------|
D|-------------------------------------|
A|-------0-----------0-0-0-------0-0-0-| x3
E|-1-1-1-------1-1-1-------3-3-3-------|

G|-------------------------------------|
D|-------------------------------------|
A|-------0-----------0-0-0-------------| 
E|-1-1-1-------1-1-1-------3-3-3-3-3-3-|

G|---------------------------------------------------------|
D|-----------------------------5-7-5-----------3-------2---|
A|-----------------------------------8-8-8-8-5---5-3-3---3-|
E|---------------------------------------------------------|

G|---------------------------------------------------------|
D|---------------------7-7-7-7-5-7-5-----------3-------2---|
A|-------8-8-8-8---------------------8-8-8-8-5---5-3-3---3-| x3
E|-5-7-5---------5-7-5-------------------------------------|

G|---------------------------------|
D|---------------------------------|
A|-2-0---2-0---2-0---2-0---2-0-----| x8
E|-----3-----3-----3-----3-----3-0-|

G|-------------------------------------------------|
D|-3--2--1-----3--2-------3--2--1----3--2h3p2------|
A|-------------------3------------------------3----|
E|-------------------------------------------------|

G|-------------------------------------|-----|
D|-15--14h15p14-13----15-14-h15-h17----|-----|
A|----------------------------------15-|-15\-|
E|------------ x2 ---------------------|-----|

G|------------------------------------------------|
D|-3--2--1--1-1-1-1-1-1-1-3--2--------------------|
A|-----------------------------3--3-3-3-3-3-3-3-3-| x2
E|------------------------------------------------|

G|-------------------------------|
D|-------------------------------|
A|--------------------------3----| x2
E|-1--3--5--7--8--10--1--3-------|
Добавлено: 24.09.2013
Другие материалы по этой песне:
  • Аккорды и текст

Страница создана 24.09.2013
http://primanota.ru/misc-unsigned-bands/bird-calls-confidence-trickster-chords.htm
Привет, Гость.
Предлагаем пройти революционный курс по гитаре.
Подарок от PrimaNota.Ru, забирай!