PrimaNota.ru - самый крупный в мире бесплатный архив песенных текстов, аккордов, табулатур и нот


Misc Unsigned Bands - Asylum Party - Together In The Fall - бас-таба, видео

Регистрация Запомнить меня
Войти через:  Facebook Google Twitter Vk Yandex Mail.ru

Misc Unsigned Bands - Asylum Party - Together In The Fall - бас-таба, видео

Печатать
Просмотров: 70
Tabbed By : Brian Gray

Tuning: Standard

Fig 1.
G|---------------------------------------------------------------------------|
D|---------------------------------------------------------------------------|
A|---------------------------2-2--2--2--2--0-0--0--0--0----------------------|
E|0-0---0--0--0---3-3--3--3--3-----------------------------------------------|x4

Fig. 2
G|---------------------------------------------------------------------------|
D|14--14--14-14---15--14--12-10-9-----------0--14-15-------------------------|
A|---------------------------------7--7--9-----------------------------------|
E|---------------------------------------------------------------------------|x2

Fig. 3
G|---------------------------------------------------------------------------|
D|---------------5-5-5-5-5-5-5-3-3-3-3-3-3-3---------------------------------|
A|0-0-0-0-0-0-0-------------------------------2-2-2-2-2-2-2-3----------------|
E|---------------------------------------------------------------------------|x3 then

Fig. 4
G|---------------------------------------------------------------------------|
D|---------------------------------------------------------------------------|
A|------------------------------------------2-2-2-2-2-2-2--------------------|
E|5-5-5-5-5-5-5-3-3-3-3-3-3-3-1-1-1-1-1-1-1----------------------------------|

Fig. 5
G|---------------------------------------------------------------------------|
D|14--14--15-17---15-15-14--12-10-9-----------0--14-15-----------------------|
A|---------------------------------7--7--9-----------------------------------|
E|---------------------------------------------------------------------------|


Fig.1  x8
Fig.2  x2
Fig.1  x4
Fig.2  x2
Fig.3  x3
Fig 4. x1
Fig 1. x8
Fig 2. x2
Fig 5. x1
Fig 2. x1
Rest
Fig 3. x3
Fig 4. x1
Fig 3. x1
Fig 4. x1
Fig 3. x2
Fig 4. x1
Fig 3. x3
Fig 4. x1
Fig 3. x3 (Fade Out)
Добавлено: 11.06.2013
Другие материалы по этой песне:
  • Аккорды и текст

Страница создана 11.06.2013
http://primanota.ru/misc-unsigned-bands/asylum-party-together-in-the-fall-chords.htm
Привет, Гость.
Предлагаем пройти революционный курс по гитаре.
Подарок от PrimaNota.Ru, забирай!