PrimaNota.ru - самый крупный в мире бесплатный архив песенных текстов, аккордов, табулатур и нот


Misc Unsigned Bands - Ba55taztic - First Practice - бас-таба

Регистрация Запомнить меня
Войти через:  Facebook Google Twitter Vk Yandex Mail.ru

Misc Unsigned Bands - Ba55taztic - First Practice - бас-таба

Печатать
Просмотров: 63
Уроки эстрадного вокала в Санкт-Петербурге
G|----------------------------------------------------------------------|
D|---------------------9--10--12----------12--10--9---------------------|
A|----------9--10--12--------------------------------12--10--9----------|
E|--10--12------------------------------------------------------12--10--|

G|---------------------9--10--12----------12--10--9---------------------|
D|----------9--10--12--------------------------------12--10--9----------|
A|--10--12------------------------------------------------------12--10--|
E|----------------------------------------------------------------------|
Добавлено: 23.06.2013
Другие материалы по этой песне:
  • Аккорды и текст

Страница создана 23.06.2013
http://primanota.ru/misc-unsigned-bands/ba55taztic-first-practice-chords.htm
Привет, Гость.
Предлагаем пройти революционный курс по гитаре.
Подарок от PrimaNota.Ru, забирай!