PrimaNota.ru - самый крупный в мире бесплатный архив песенных текстов, аккордов, табулатур и нот


Misc Unsigned Bands - Afterbath - Provocative Chocolate - бас-таба

Регистрация Запомнить меня
Войти через:  Facebook Google Twitter Vk Yandex Mail.ru

Misc Unsigned Bands - Afterbath - Provocative Chocolate - бас-таба

Печатать
Просмотров: 43
-------------------------------------------------------------------------------
                      Provocative Chocolate - Afterbath
-------------------------------------------------------------------------------
Intro:
G|---9-7-----------------------9-7--------------7-9\11-9/7---|
D|-------9-7----------5-7-5--------9-7--------9--------------|
A|-7---------9-7--5-7--------7---------9-7--7----------------|
E|-----------------------------------------------------------|

Verse:
G|---9-7-------------------------------9-7-------------------|
D|-------9-7----------5-7-5----5-7-8-9-----9-7---------5-7---|
A|-7---------9-7--5-7--------7-----------------9-7-5-7-------|
E|-----------------------------------------------------------|

Chorus:
G|---------------------------------|
D|-------------------4-------4-----|
A|----5-------5---2----2--2----2---|
E|-3----3--3----3------------------|


===============================================================================
Добавлено: 08.02.2016
Другие материалы по этой песне:
  • Аккорды и текст

Страница создана 07.02.2016
http://primanota.ru/misc-unsigned-bands/afterbath-provocative-chocolate-chords.htm
Привет, Гость.
Предлагаем пройти революционный курс по гитаре.
Подарок от PrimaNota.Ru, забирай!