PrimaNota.ru - самый крупный в мире бесплатный архив песенных текстов, аккордов, табулатур и нот


Misc Unsigned Bands - Afterbath - Rawnald Gregory Erickson The Second - бас-таба

Регистрация Запомнить меня
Войти через:  Facebook Google Twitter Vk Yandex Mail.ru

Misc Unsigned Bands - Afterbath - Rawnald Gregory Erickson The Second - бас-таба

Печатать
Просмотров: 54
-------------------------------------------------------------------------------
                 Rawnald Gregory Erickson the Second - Afterbath
-------------------------------------------------------------------------------

Instrumental:
G|-----------------------------------------------------------|
D|-5----5----5---5--5-5----5----5---5--5\-9----9----9---9--9-|
A|-----------------------------------------------------------|
E|-3--3---3--3--3--3--3--3---3--3--3--3-\-7--7---7--7--7--7--|

G|-9----9----7----7------------------------|
D|---------------------7----7----10--10----|
A|-7--7---7--5--5---5----------------------|
E|---------------------5--5---5--8--8---8--|


Chorus:
G|------------------------------------------------------------------------|
D|------------------------------------------------------------------------|
A|--------------------------------------------------5-55-5-0-00-0-3-33----|
E|-3-33-0-3-33-0-3-33-0-3-33-0-7-77-0-7-77-0-0-00-0--------------------0--|

G|----------------------------------------------------------------------------|
D|----------------------------------------------------------------------------|
A|------------------------------------------------------5-55-5-0-00-0-3-33----|
E|-3-33-0-3-33-0-3-33-0-3-33-0-7-77-0-7-77-0-12-1212-12--------------------0--|


===============================================================================
Добавлено: 08.02.2016
Другие материалы по этой песне:
  • Аккорды и текст

Страница создана 07.02.2016
http://primanota.ru/misc-unsigned-bands/afterbath-rawnald-gregory-erickson-second-chords.htm
Привет, Гость.
Предлагаем пройти революционный курс по гитаре.
Подарок от PrimaNota.Ru, забирай!