PrimaNota.ru - самый крупный в мире бесплатный архив песенных текстов, аккордов, табулатур и нот


Misc Unsigned Bands - Freakshow - бас-таба, видео

Регистрация Запомнить меня
Войти через:  Facebook Google Twitter Vk Yandex Mail.ru

Misc Unsigned Bands - Freakshow - бас-таба, видео

Печатать
Просмотров: 55
Уроки эстрадного вокала в Санкт-Петербурге
-------------------------------------------------------------------------------
                             Freakshow - Revelations
-------------------------------------------------------------------------------
Tabbed by:
E-mail:

Tuning: CGCF

beginning verse
D|---------------------------------------------------------------------------|
A|---------------------------------------------------------------------------|
F|---------------------------------------------------------------------------|
C|---------------------------------------------------------------------------|
G|5------------------5---------------4---------------1111555500004444--------|
C|--00-01-04-01-00-00--00-01-04-00-00--00-01-04-00-00------------------------|
    *  *  *  *  *  **  *  *  *  *  **  *  *  *  *  ****************             x2
D|---------------------------------------------------------------------------|
A|---------------------------------------------------------------------------|
F|---------------------------------------------------------------------------|
C|---------------------------------------------------------------------------|
G|5------------------5---------------4---------------1111555544440000--------|
C|--00-01-04-01-00-00--00-01-04-00-00--00-01-04-00-00------------------------|
    *  *  *  *  *  **  *  *  *  *  **  *  *  *  *  ****************
D|---------------------------------------------------------------------------|
A|---------------------------------------------------------------------------|
F|---------------------------------------------------------------------------|
C|---------------------------------------------------------------------------|
A|---------------------------------------------------------------------------|
C|00-00-00-0-0-0-00-00-00-00-00-00-00-0-04-01-04-01-04-----------------------|  x2

chorus
D|---------------------------------------------------------------------------|
A|---------------------------------------------------------------------------|
F|---------------------------------------------------------------------------|
C|---------------------------------------------------------------------------|
A|---------------------------------------------------------------------------|
C|0-0-0-0-0-0-0-0-5-5-5-5-5-5-5-5-3-3-3-3-3-3-3-3-8-8-8-8-8-8-8-8------------|

D|---------------------------------------------------------------------------|
A|---------------------------------------------------------------------------|
F|---------------------------------------------------------------------------|
C|---------------------------------------------------------------------------|
A|---------------------------------------------------------------------------|
C|0-0-0-0-0-0-0-0-8-8-8-8-8-8-8-8-3-3-3-3-3-3-3-3-7-7-7-7-7-7-7-7------------|

another verse
D|---------------------------------------------------------------------------|
A|---------------------------------------------------------------------------|
F|---------------------------------------------------------------------------|
C|---------------------------------------------------------------------------|
G|5------------------5---------------4---------------1111555500004444--------|
C|--00-01-04-01-00-00--00-01-04-00-00--00-01-04-00-00------------------------|
    *  *  *  *  *  **  *  *  *  *  **  *  *  *  *  ****************             x2
D|---------------------------------------------------------------------------|
A|---------------------------------------------------------------------------|
F|---------------------------------------------------------------------------|
C|---------------------------------------------------------------------------|
G|5------------------5---------------4---------------1111555544440000--------|
C|--00-01-04-01-00-00--00-01-04-00-00--00-01-04-00-00------------------------|
    *  *  *  *  *  **  *  *  *  *  **  *  *  *  *  ****************
^after this nothing but guitar

breakdown with piano and such
D|---------------------------------------------------------------------------|
A|---------------------------------------------------------------------------|
F|---------------------------------------------------------------------------|
C|---------------------------------------------------------------------------|
A|---------------------------------------------------------------------------|
C|0-0-0-0--0-0-0-0--0--0-0-0-0-0-0-0-0---0-110-0110-0-0-0-0--0-0-0-0--0--0-0-0-0-0-0-0-0---0-12\|

D|---------------------------------------------------------------------------|
A|---------------------------------------------------------------------------|
F|---------------------------------------------------------------------------|
C|---------------------------------------------------------------------------|
A|-------------------------------------------------------1-0-----------------|x2
C|000-000-000--000--000--000--000-000-000--004-00-01-00-0--------------------|

D|---------------------------------------------------------------------------|
A|---------------------------------------------------------------------------|
F|---------------------------------------------------------------------------|
C|---------------------------------------------------------------------------|
A|---------------------------------------------------------------------------|
C|000-000-000-0-0--000--000-000-000-0-0------000-000-000-000-000-0-0--000--000-000-000-0-0------000-000-0/12\-|

chorus
D|---------------------------------------------------------------------------|
A|---------------------------------------------------------------------------|
F|---------------------------------------------------------------------------|
C|---------------------------------------------------------------------------|
A|---------------------------------------------------------------------------|
C|0-0-0-0-0-0-0-0-5-5-5-5-5-5-5-5-3-3-3-3-3-3-3-3-8-8-8-8-8-8-8-8------------|

D|---------------------------------------------------------------------------|
A|---------------------------------------------------------------------------|
F|---------------------------------------------------------------------------|
C|---------------------------------------------------------------------------|
A|---------------------------------------------------------------------------|
C|0-0-0-0-0-0-0-0-8-8-8-8-8-8-8-8-3-3-3-3-3-3-3-3-7-7-7-7-7-7-7-7------------|

end
D|---------------------------------------------------------------------------|
A|---------------------------------------------------------------------------|
F|---------------------------------------------------------------------------|
C|---------------------------------------------------------------------------|
A|---------------------------------------------------------------------------|
C|0|


************************************

| /   slide up
| \   slide down
| h   hammer-on
| p   pull-off
| ~   vibrato
| +   harmonic
| x   Mute note
| b   Bend
| pb  Pre-bend
| br  Bend release
| pbr Pre-bend release
| brb Bend release bend

************************************
Добавлено: 08.02.2016
Другие материалы по этой песне:
  • Аккорды и текст

Страница создана 07.02.2016
http://primanota.ru/misc-unsigned-bands/freakshow-chords.htm
Привет, Гость.
Предлагаем пройти революционный курс по гитаре.
Подарок от PrimaNota.Ru, забирай!