PrimaNota.ru - самый крупный в мире бесплатный архив песенных текстов, аккордов, табулатур и нот


Misc Unsigned Bands - Afterbath - The Universal Gypsie Queen - бас-таба

Регистрация Запомнить меня
Войти через:  Facebook Google Twitter Vk Yandex Mail.ru

Misc Unsigned Bands - Afterbath - The Universal Gypsie Queen - бас-таба

Печатать
Просмотров: 85
Уроки эстрадного вокала в Санкт-Петербурге
-------------------------------------------------------------------------------
                    (The Universal) Gypsie Queen - Afterbath
-------------------------------------------------------------------------------
Intro:
G|------------------------------------------------------------------|
D|-----------------2222222233333332----------------2222222257545420-|
A|-3333333333333333----------------3333333333333333-----------------|
E|------------------------------------------------------------------|

Verse:
G|-------------------|
D|-------------------|
A|-3333-----3333-----|
E|-------33-------11-|

Pre-chorus:
G|-------------5-7-5~--5-0-10~----10-------|
D|-------------------------10~----10-(x16)-|
A|-3~-3-3\8~---------------8~-----8--------|
E|-----------------------------------------|

Chorus:
G|------------------------------75---|
D|-----2222333353-------22223333--75-|
A|-3333----------53-3333-------------|
E|-----------------------------------|

Post-chorus:                           Last time, end with:
G|-----------------------------------| G|--------------------------|
D|-----222233333202-----222233335320-| D|-----22223333532053203202-|
A|-3333-------------3333-------------| A|-3333---------------------|
E|-----------------------------------| E|--------------------------|

Outro:
G|----------|
D|----------|
A|-3-3-3----|
E|-------1~-|


===============================================================================
Добавлено: 08.02.2016
Другие материалы по этой песне:
  • Аккорды и текст

Страница создана 07.02.2016
http://primanota.ru/misc-unsigned-bands/afterbath-universal-gypsie-queen-chords.htm
Привет, Гость.
Предлагаем пройти революционный курс по гитаре.
Подарок от PrimaNota.Ru, забирай!