PrimaNota.ru - самый крупный в мире бесплатный архив песенных текстов, аккордов, табулатур и нот


Misc Unsigned Bands - Abby The Prawn - Whoremoanal - бас-таба

Регистрация Запомнить меня
Войти через:  Facebook Google Twitter Vk Yandex Mail.ru

Misc Unsigned Bands - Abby The Prawn - Whoremoanal - бас-таба

Печатать
Просмотров: 67
                               ABBY AND THE PRAWN
                                           Whoremoanal

Tabbed by: Madi Morris

I'm the bassist of Abby & the Prawn - so please don't challenge my tab. This
is how it is played (even if it may seem silly, I am silly). I prefer jumps 
as opposed to open strings. It makes it much more interesting to play. 
Note: I use a pick and I strongly suggest using alternate picking. 
Enjoy! 

Standard tuning (EADG).areyjnabhtetyh     H gre grg gr

Intro:
 
G|---------------------------------------------|
D|---------------------------------------------|  x2
A|------------------------5--5--5-5--7-7--7-7--|
E|-5--5--5-5\-2--2--2-2/-----------------------|

Verse:

G|------------------------------|
D|------------------------------|
A|--------4--x-x-5--x-x---------| x4
E|-5--x-x----------------7-7-7--|

G|---------------------------------------------|
D|---------------------------------------------|  x2
A|----------------------/-5--5--5-5--7-7--7-7--|
E|-5--5--5-5\-2--2--2-2/-----------------------|

G|------------------------------|
D|------------------------------|
A|--------4--x-x-5--x-x---------| x4
E|-5--x-x----------------7-7-7--|

G|---------------------------------------------|
D|---------------------------------------------|  x2
A|----------------------/-5--5--5-5--7-7--7-7--|
E|-5--5--5-5\-2--2--2-2/-----------------------|

Bridge:

                                 / 1st time                      \
G|------------------------------ | ----------------------------- |
D|------------------------------ | ----------------------------- |  
A|-5--5--5-5-5-5--5--5--5-5-5-5- | ----------------------------- | 
E|------------------------------ | 5--5--5-5-5-5--5--5--5-5-5-5- |
                                 \                               /
  
                                 / 2nd time                     \
                                 | -----------------------------|
                                 | -----------------------------| 
                                 | -----------------------------| 
                                 | 7--7--7-/12p-0---------------|
                                 \                              /

Prechorus:

G|-------------------------------------------------|
D|-------------------------------------------------|  
A|-5--5--5-5-5/9--9--9-9-9-7--7--7-7-7-7--7--7-7-7-|
E|-------------------------------------------------|

G|-------------------------------------------14-16b17-14-------|
D|--------------------------------------14h16-----------16-14--|  
A|-5--5--5-5-5/9--9--9-9-9-7--7--7-7-7/------------------------|
E|-------------------------------------------------------------|

G|-------------------------------------------------|
D|-------------------------------------------------|  
A|-5--5--5-5-5/9--9--9-9-9-7--7--7-7-7-7--7--7-7-7-|
E|-------------------------------------------------|

Chorus:

G|---------------------------------------5--5---5--5--|
D|----------------------------------------------------| x2
A|-5--5--5-5-5/9--9--9-9-9-7--7--7-7-7--7--7---7--7---|
E|----------------------------------------------------|

Bridge 2:

G|-------------------------------|
D|-------------------------------|
A|----------------5--x-x--2-2-2--| x11
E|-2--x-x--5--x-x----------------|

G|----------------------------------|
D|----------------------------------|
A|-5-5-5-5-5-5-5-5-7-7-7-7-7-7-7-7--| 
E|----------------------------------|

Last Chorus:

G|---------------------------------------5--5---5--5--|
D|----------------------------------------------------| x3
A|-5--5--5-5-5/9--9--9-9-9-7--7--7-7-7--7--7---7--7---|
E|----------------------------------------------------|

G|------------------------------------------------------|
D|------------------------------------------------------|
A|-5--5--5-5-5/9--9--9-9-9---------------------------5--|
E|-------------------------7--7--7-/-12p0---------------|
Добавлено: 13.06.2013
Другие материалы по этой песне:
  • Аккорды и текст

Страница создана 13.06.2013
http://primanota.ru/misc-unsigned-bands/abby-the-prawn-whoremoanal-chords.htm
Привет, Гость.
Предлагаем пройти революционный курс по гитаре.
Подарок от PrimaNota.Ru, забирай!