PrimaNota.ru - самый крупный в мире бесплатный архив песенных текстов, аккордов, табулатур и нот


Misc Unsigned Bands - Against Their Will - Operation Vampire Killer Part 1 The Fall Of America - бас-таба

Регистрация Запомнить меня
Войти через:  Facebook Google Twitter Vk Yandex Mail.ru

Misc Unsigned Bands - Against Their Will - Operation Vampire Killer Part 1 The Fall Of America - бас-таба

Печатать
Просмотров: 82
Tuning is C# Standard.  2 full steps down.

~ Hold
/ Slide Up
\ Slide Down

Riff 1 - Follow the steady rhythm

E---------------------------------------------------|
B---------------------------------------------------|
F#--3-3-3-3-3-3-------------------------------------|
C#--------------3-3-3-3-3-3-4-4-4-4-4-4-3-3-3-3-3-3-|

E---------------------------------------------------|
B---------------------------------------------------|
F#-555555555555666666666666555555555555-3-3-3-3-3-3-|
C#--------------------------------------------------|

Transition

E---------------------------------------------------|
B---------------------------------------------------|
F#-3~~~~~~~~~~~-------------------------------------|
C#-------------3~~~~~~~~~~~~4~~~~~~~~~~~3~~~~~~~~~~-|

E--------------------------------------------------|
B--------------------------------------------------|
F#-5~~~~~~~~~~~6~~~~~~~~~~~~5~~~~~~~~~~~3~~~~~~~~~~
C#-------------------------------------------------

Hold until all instruments enter next section

*Riff 2 is very easy.  Follow the rhythm of guitars.  3/4 measure is F# (second 
string)-third fret.  Last 1/4 measure is F#-first fret.


Riff 3 - Another strange rhythm. This tab is more of a guideline than anything.  
practice along with complete song

E--------------------------------------------------|
B--------------------------------------------------|
F#-3-1--1-111-1-111-1-111-1-111-1-3-4-3-1----------|
C#-------------------------------------------------|

Outro

E--------------------------------------------------|
B--------------------------------------------------|
F#-------------------------------------------------|
C#--9-8--8\----------------------------------------|


Enjoy!
Добавлено: 02.09.2013
Другие материалы по этой песне:
  • Аккорды и текст

Страница создана 02.09.2013
http://primanota.ru/misc-unsigned-bands/against-their-will-operation-vampire-killer-part-1-the-fall-of-america-chords.htm
Привет, Гость.
Предлагаем пройти революционный курс по гитаре.
Подарок от PrimaNota.Ru, забирай!