PrimaNota.ru - самый крупный в мире бесплатный архив песенных текстов, аккордов, табулатур и нот


Misc Unsigned Bands - A Traitors Legacy - Our Way Home - таба

Регистрация Запомнить меня
Войти через:  Facebook Google Twitter Vk Yandex Mail.ru

Misc Unsigned Bands - A Traitors Legacy - Our Way Home - таба

Печатать
Просмотров: 84
A Traitor's Legacy
Our Way Home
Guitar tab
download teh song @
www.bandcamp.com/atraitorslegacy
www.facebook.com/atraitorslegacy

Intro pt1
Guitar1 x4
D|--------------------------------------------------|
A|--------------------------------------------------|
F|--------------------------------------------------|
C|--------------------------------------------------|
G|--------------------------------------------------|
C|-12-0-10-0-10h12-0-10h12-0-12h13-13-13------------|




Intro pt2
Guitar1 x2
D|--------------------------------------------------|
A|--------------------------------------------------|
F|--------------------------------------------------|
C|--------------------------------------------------|
G|--------------------------------------------------|
C|-12-0-10-0-10h12-0-10h12-0-12h13-13-13------------|

D|--------------------------------------------------|
A|--------------------------------------------------|
F|--------------------------------------------------|
C|--------------------------------------------------|
G|--------------------------------------------------|
C|-12-0-10-0-10h12-0-10h12-0-10h12-12-12------------|

Guitar2 x2
D|--------------------------------------------------|
A|--------------------------------------------------|
F|--------------------------------------------------|
C|--------------------------------------------------|
G|--------------------------------------------------|
C|-12-0-10-0-10h12-0-10h12-0-12h13-13-13------------|

D|--------------------------------------------------|
A|--------------------------------------------------|
F|--------------------------------------------------|
C|--------------------------------------------------|
G|--------------------------------------------------|
C|-12-0-10-0-10h12-0-10h12-0-10h12-12-12------------|




verse1
"fuck your ego"
both guitars x4
D|------------------------------|
A|------------------------------|
F|------------------------------|
C|------------------------------|
G|-0-0-000-0-00--0000-0000-0-00-|
C|-0-0-000-0-00--0000-0000-0-00-|
PM . . ... . ..  .... .... . ..

Guitar1 x2
D|--------------------------------------------------|
A|--------------------------------------------------|
F|--------------------------------------------------|
C|--------------------------------------------------|
G|--------------------------------------------------|
C|-12-0-10-0-10h12-0-10h12-0-12h13-13-13------------|

D|--------------------------------------------------|
A|--------------------------------------------------|
F|--------------------------------------------------|
C|--------------------------------------------------|
G|--------------------------------------------------|
C|-12-0-10-0-10h12-0-10h12-0-00-00------------------|

guitar2 x4
D|------------------------------|
A|------------------------------|
F|------------------------------|
C|------------------------------|
G|-0-0-000-0-00--0000-0000-0-00-|
C|-0-0-000-0-00--0000-0000-0-00-|
PM . . ... . ..  .... .... . ..




bridge
both guitars
D|-------------------------------------------------|
A|-------------------------------------------------|
F|-------------------------------------------------|
C|-0~----------------------------------------------|
G|-0~----------------------------------------------|
C|-0~----------------------------------------------|





Chorus
Guitar 1 x2
D|--------------------------------------------------|
A|--------------------------------------------------|
F|--------------------------------------------------|
C|--------------------------------------------------|
G|--------------------------------------------------|
C|-8800007700008800007700007h888888-----------------|

D|--------------------------------------------------|
A|--------------------------------------------------|
F|--------------------------------------------------|
C|--------------------------------------------------|
G|-------------------------8h10101010---------------|
C|-880000770000880000770000-------------------------|

Guitar 2 x2
D|--------------------------------------------------|
A|--------------------------------------------------|
F|--------------------------------------------------|
C|--------------------------------------------------|
G|--------------------------------------------------|
C|-8800007700008800007700007h888888-----------------|

D|--------------------------------------------------|
A|--------------------------------------------------|
F|--------------------------------------------------|
C|--------------------------------------------------|
G|--------------------------------------------------|
C|-8800007700008800007700008h10101010---------------|

Guitar 1 x2
D|--------------------------------------------------|
A|--------------------------------------------------|
F|-10-10-10-10-10-10-10-10-9-9-9-9-12-12-12-12------|
C|-x--x--x--x--x--x--x--x--x-x-x-x-x--x--x--x-------|
G|-8--8--8--8--8--8--8--8--7-7-7-7-10-10-10-10------|
C|--------------------------------------------------|

D|--------------------------------------------------|
A|--------------------------------------------------|
F|-14-14-14-14-14-14-14-14-12-12-12-12-15-15-15-15--|
C|-x--x--x--x--x--x--x--x--x--x--x--x--x--x--x--x---|
G|-12-12-12-12-12-12-12-12-10-10-10-10-13-13-13-13--|
C|--------------------------------------------------|

Guitar 2 x2
D|--------------------------------------------------|
A|--------------------------------------------------|
F|--------------------------------------------------|
C|--------------------------------------------------|
G|--------------------------------------------------|
C|-8800007700008800007700007h888888-----------------|

D|--------------------------------------------------|
A|--------------------------------------------------|
F|--------------------------------------------------|
C|--------------------------------------------------|
G|--------------------------------------------------|
C|-8800007700008800007700008h10101010---------------|




Bridge2
Guitar1                              "drop it"
D|--------------------------------------------------|
A|--------------------------------------------------|
F|--------------------------------------------------|
C|--------------------------------------------------|
G|--0--0----0000-0-0----0000-0-0--0-----------------|
C|--0--0----0000-0-0----0000-0-0--0-----------------|
PM  .  .    .... . .    .... . .  . 




Brakdown1
both guitars x2
D|--------------------------------------------------|
A|--------------------------------------------------|
F|--------------------------------------------------|
C|--------------------------------------------------|
G|--0--0----0000-0-0----0000-0-0--0-----------------|
C|--0--0----0000-0-0----0000-0-0--0-----------------|
PM  .  .    .... . .    .... . .  . 

D|--------------------------------------------------|
A|--------------------------------------------------|
F|--------------------------------------------------|
C|--------------------------------------------------|
G|--0--0----0000-0-0----0000-0-0--------------------|
C|--0--0----0000-0-0----0000-0-0-8-0-7~-------------|
PM  .  .    .... . .    .... . .    .

guitar1 x2
D|--------------------------------------------------|
A|--------------------------------------------------|
F|--------------------------------------------------|
C|--------------------------------------------------|
G|------------------------------------------------0-|
C|-8t------7t-------10t-------8t---------8-0-7~---0-|
PM                                         .      .

guitar 2 x2
D|--------------------------------------------------|
A|--------------------------------------------------|
F|--------------------------------------------------|
C|--------------------------------------------------|
G|--0--0--------------0000-0------------------------|
C|--0--0--------------0000-0------------------------|
PM  .  .              .... .   

D|--------------------------------------------------|
A|--------------------------------------------------|
F|--------------------------------------------------|
C|--------------------------------------------------|
G|--0--0--------------0000-0-----------0------------|
C|--0--0--------------0000-0--8-0-7~---0------------|
PM  .  .              .... .    .      .




Breakdown2
"fuck"
both guitars x4
D|------------------------------|
A|------------------------------|
F|------------------------------|
C|------------------------------|
G|-0-0-000-0-00--0000-0000-0-00-|
C|-0-0-000-0-00--0000-0000-0-00-|
PM . . ... . ..  .... .... . ..




Verse2
both guitars
D|-----------------------------------------------------|
A|-----------------------------------------------------|
F|-----------------------------------------------------|
C|-----------------------------------------------------|
G|-0--0--0---0-0-00-------0-00-00------0000--0000-0-00-|
C|-1--1--1---1-1-11-------1-11-11------1111--1111-1-11-|
PM .  .  .   . . ..       . .. ..      ....  .... . ..



bridge
D|-------------------------------------------------|
A|-------------------------------------------------|
F|-------------------------------------------------|
C|-0~----------------------------------------------|
G|-0~----------------------------------------------|
C|-0~----------------------------------------------|




Chorus
Guitar 1 x2
D|--------------------------------------------------|
A|--------------------------------------------------|
F|--------------------------------------------------|
C|--------------------------------------------------|
G|--------------------------------------------------|
C|-8800007700008800007700007h888888-----------------|

D|--------------------------------------------------|
A|--------------------------------------------------|
F|--------------------------------------------------|
C|--------------------------------------------------|
G|-------------------------8h10101010---------------|
C|-880000770000880000770000-------------------------|

Guitar 2 x2
D|--------------------------------------------------|
A|--------------------------------------------------|
F|--------------------------------------------------|
C|--------------------------------------------------|
G|--------------------------------------------------|
C|-8800007700008800007700007h888888-----------------|

D|--------------------------------------------------|
A|--------------------------------------------------|
F|--------------------------------------------------|
C|--------------------------------------------------|
G|--------------------------------------------------|
C|-8800007700008800007700008h10101010---------------|




Guitar 1 x2
D|--------------------------------------------------|
A|--------------------------------------------------|
F|-10-10-10-10-10-10-10-10-9-9-9-9-12-12-12-12------|
C|-x--x--x--x--x--x--x--x--x-x-x-x-x--x--x--x-------|
G|-8--8--8--8--8--8--8--8--7-7-7-7-10-10-10-10------|
C|--------------------------------------------------|

D|--------------------------------------------------|
A|--------------------------------------------------|
F|-14-14-14-14-14-14-14-14-12-12-12-12-15-15-15-15--|
C|-x--x--x--x--x--x--x--x--x--x--x--x--x--x--x--x---|
G|-12-12-12-12-12-12-12-12-10-10-10-10-13-13-13-13--|
C|--------------------------------------------------|

Guitar 2 x2
D|--------------------------------------------------|
A|--------------------------------------------------|
F|--------------------------------------------------|
C|--------------------------------------------------|
G|--------------------------------------------------|
C|-8800007700008800007700007h888888-----------------|

D|--------------------------------------------------|
A|--------------------------------------------------|
F|--------------------------------------------------|
C|--------------------------------------------------|
G|--------------------------------------------------|
C|-8800007700008800007700008h10101010---------------|




build up
guitar 1
D|--------------------------------------------------|
A|--------------------------------------------------|
F|-14---------------------12------------------------|
C|-x----------------------x-------------------------|
G|-12---------------------10------------------------|
C|--------------------------------------------------|

guitar 2
D|--------------------------------------------------|
A|--------------------------------------------------|
F|--------------------------------------------------|
C|-8----------------------5-------------------------|
G|-8----------------------5-------------------------|
C|-8----------------------5-------------------------|

both guitars x4
D|--------------------------------------------------|
A|--------------------------------------------------|
F|--------------------------------------------------|
C|-0------------------------------------------------|
G|-0------------------------------------------------|
C|-0------------------------------------------------|




end breakdown
guitar1
D|-----------------|
A|-----------------|
F|-----------------|
C|-----------------|
G|-0000-00-0000-00-|
C|-0000-00-0000-00-|
PM .... .. .... ..

both guitars x2
D|--------------------------------------------------------|
A|--------------------------------------------------------|
F|--------------------------------------------------------|
C|-0---------------------------0--------------------------|
G|-0---0000-0--0000-00-0000-00-0---0000-0-000-000-000-000-|
C|-0---0000-0--0000-00-0000-00-0---0000-0-000-000-000-000-|
PM .   .... .  .... .. .... .. .   .... . ... ... ... ...

both guitars x2
D|-----------------------------------------------------|
A|-----------------------------------------------------|
F|-----------------------------------------------------|
C|-----------------------------------------------------|
G|-0--0--0---0-0-00-------0-00-00------0000--0000-0-00-|
C|-1--1--1---1-1-11-------1-11-11------1111--1111-1-11-|
PM .  .  .   . . ..       . .. ..      ....  .... . ..

both guitars
D|--------------------------------------------------|
A|--------------------------------------------------|
F|--------------------------------------------------|
C|-0------------------------------------------------|
G|-0------------------------------------------------|
C|-0------------------------------------------------|
Добавлено: 05.09.2013
Другие материалы по этой песне:
  • Аккорды и текст

Страница создана 05.09.2013
http://primanota.ru/misc-unsigned-bands/a-traitors-legacy-our-way-home-chords.htm
Привет, Гость.
Предлагаем пройти революционный курс по гитаре.
Подарок от PrimaNota.Ru, забирай!