PrimaNota.ru - самый крупный в мире бесплатный архив песенных текстов, аккордов, табулатур и нот


Misc Unsigned Bands - Aaron Zint - Julie-o - таба

Регистрация Запомнить меня
Войти через:  Facebook Google Twitter Vk Yandex Mail.ru

Misc Unsigned Bands - Aaron Zint - Julie-o - таба

Печатать
Просмотров: 73
This is specifically a tab of Aaron Zint's guitar arrangement of Julie-O, which 
you can watch here:

http://www.youtube.com/watch?v=ejLTw_Ug2WA

Standard tuning
Capo 3

Fingerpicked:

|---------|-----------|----------------|
|-----3---|-------2---|-2h3p2-3-3--3---|
|---------|-----------|-------2-2--2---|
|---4-----|---2h4-----|-------0-0--0---|
|-2-------|-0---------|-------0-0--0---|
|---------|-----------|-------3-3--3---|

|---------|---------|---------|---------|
|---------|---------|---------|---------|
|-------2-|-------2-|-------2-|-------2-|
|-----0---|-----0---|-----0---|-----0---|
|---0-----|---0-----|-0-0-----|---0-----|
|-2-------|-3-------|---------|-3-------|

|---------|---------|---------|---------|
|---------|---------|---------|---------|
|-------2-|-------2-|-------2-|-------2-|
|-----0---|-----0---|-----0---|-----0---|
|---0-----|---0-----|-0-0-----|---0-----|
|-2-------|-3-------|---------|-3-------|

|-----------|-----------|-----------|-----------|
|-----------|-----------|-----------|-----------|
|---------2-|---------2-|---------2-|---------2-|
|-----0h2---|-----0h2---|-----0h2---|-----0h2---|
|---0-------|---0-------|-0-0-------|---0-------|
|-2---------|-3---------|-----------|-3---------|

|---------|---------|---------|-----|
|-------3-|-------3-|-------3-|-3---|
|-----2---|-----2---|-----2---|-2---|
|-0-0-----|-0-0-----|-0-0-----|-0---|
|---------|---------|---------|-0---|
|---------|---------|---------|-3---|

Rubato
|---------|-----------|---------|-----|
|-------3-|---------3-|-------3-|-3---|
|-----2---|-------2---|-----2---|-2---|
|-0-0-----|-0-0-0-----|-0-0-----|-0---|
|---------|-----------|---------|-0---|
|---------|-----------|---------|-3---|

|-------------------------------------|
|-----------3-0h1p0-------------------|
|---------2---------2p0---------------|
|-0h2h4-4----------------2--0h2h4-4---|
|------------------------0--------2---|
|-------2-2---3-----------------------|


|----------------------------------|
|-----------3-0h1p0---------3--3---|
|---------2--------h2p0-----0--2---|
|-0h2h4-4----------------2--0--0---|
|------------------------0--2--0---|
|-------2-2---3-------------3--2---|

(Pause, tap scratchboard)

|-------------------------------------------|
|-----------3-0-0h1p0-----------------------|
|---------2---0--------2p0------------------|
|-0h2h4-4-0---0------------2--0h2h4-4-4-4-4-|
|---------0---2------------0--------2-2-2-2-|
|-------2-2---3-----------------------------|

|--------------------------------------|
|-----------3-0-0h1p0---------3--3-3-3-|
|---------2---0------h2p0-----0--2-2-2-|
|-0h2h4-4-0---0------------2--0--0-0-0-|
|---------0---2------------0--2--0-0-0-|
|-------2-2---3---------------3--2-2-2-|

|-------------------------------------------|
|-----------3-0-0h1p0-----------------------|
|---------2---0--------2p0------------------|
|-0h2h4-4-0---0------------2--0h2h4-4-4-4-4-|
|---------0---2------------0--------2-2-2-2-|
|-------2-2---3-----------------------------|

|--------------------------------------|
|-----------3-0-0h1p0---------3--3-3-3-|
|---------2---0------h2p0--2--0--2-2-2-|
|-0h2h4-4-0---0------------2--0--0-0-0-|
|---------0---2------------0--2--0-0-0-|
|-------2-2---3---------------3--2-2-2-|

(Strum D5)

|--------------------------------------|
|-----------------------------3--3-3---|
|-2---------------------------0--2-2---|
|-0-0-0h2h4-4-2-0-5.-2-2-2-2--0--0-0---|
|-0------------------0-0-0-0--2--0-0---|
|-2---------3-3-3-------------3--2-2---|

|----------------------------------------|
|-3--------------------------------------|
|-2--------------------------------------|
|-0-0-0h2h4-4-2-0-5.-4-4-4-4-2-0-0-0-0---|
|-0------------------1-1-1-1-1-2-2-2-2---|
|-2---------3-3-3------------------------|

|----------------------------------------------|
|-----------0-0h1p0----------------------------|
|-2---------0------2p0--2-2-2-2-2--------------|
|-0-0-0h2h4-0-----------2-2-2-2-2--0-4-0-4-0---|
|-0---------2-----------0-0-0-0-0--2-2-2-2-2---|
|-2---------3----------------------------------|

|-------------------------------|
|----------------------3--3-3---|
|-2--------------------0--2-2---|
|-0-0-0h2h4-4-2-0-5.-2-0--0-0---|
|-0------------------0-2--0-0---|
|-2---------3-3-3------3--2-2---|

(Strum D5)
Добавлено: 29.09.2013
Другие материалы по этой песне:
  • Аккорды и текст

Страница создана 29.09.2013
http://primanota.ru/misc-unsigned-bands/aaron-zint-julie-o-chords.htm
Привет, Гость.
Предлагаем пройти революционный курс по гитаре.
Подарок от PrimaNota.Ru, забирай!