PrimaNota.ru - самый крупный в мире бесплатный архив песенных текстов, аккордов, табулатур и нот


Misc Unsigned Bands - Absolace - Chroma Mera - таба

Регистрация Запомнить меня
Войти через:  Facebook Google Twitter Vk Yandex Mail.ru

Misc Unsigned Bands - Absolace - Chroma Mera - таба

Печатать
Просмотров: 78
Band: Absolace
Title: Chroma Mera
Album: Fractals
Tabbed by: redick4ulous
e-mail: redick4ulous@hotmail.com

Tuning: DADGBE (Drop D)

I tabbed this by ear and it seems pretty good.  But
if I have something wrong then let me know.  Thanks.


        Intro plays with the synth and drums.  When the 
        guitar comes in, play this:
        
E --------------------------------------------------------|
B --------------------------------------------------------|
G --------------------------------------------------------|
D ----------------------4b5r4~----------------------------| x2
A --------------------------------------------------------|
D --8---8-10-8-7-5---4-------------8---8-10-8-7-5--\12----|


    
E --------------------------------------------------------|
B --------------------------------------------------------|
G --------------------------------------------------------|
D --------------3-------------------5---------------------| x12
A --3-5-5-5-5-5---5-5-5-5-5-3-5-5-5---5-5-5---------------|
D --------------------------------------------------------|
    P P P P P P P P P P P P P P P P P P P P


E --------------------------------------------------------|
B --------------------------------------------------------|
G --------------------------------------------------------|
D --7----------10---------0--0--0--0--0-3-----------------| x4
A --5----------8----------0--0--0--0--0-3-----------------|
D --5----------8----------0--0--0--0--0-3-----------------|


        Solo (next 4 bars) Above bar plays over solo
E --------------------------------------------------------|
B --------------------------------------------------------|
G ---------10-----12~---10-9---10r9-----------------------|
D --10-12------12-------------------12-10------10-12------|
A ----------------------------------------10--------------|
D --------------------------------------------------------|


E ------------------------------10-----10-----------------|
B ---------------------------10----10--10b12------12----10|
G --9/12-10-9---10---9-10-12-------------------12----12---|
D --------------------------------------------------------|
A --------------------------------------------------------|
D --------------------------------------------------------|


E -------------12-12--x-x--10-10--x-x--12-12--x-x--10-10--|
B --12---------12-12--x-x--10-10--x-x--12-12--x-x--10-10--|
G -----12/14---12-12--x-x--10-10--x-x--12-12--x-x--10-10--|
D --------------------------------------------------------|
A --------------------------------------------------------|
D --------------------------------------------------------|


E --------------------------------------------------------|
B ----------------------------------13--15\---------------|
G ------10-----------10-10/12-14--14~~--------------------|
D --12-----12--10/12--------------------------------------|
A --------------------------------------------------------|
D --------------------------------------------------------|


        Bass solo here, then the next bar again.


E --------------------------------------------------------|
B --------------------------------------------------------|
G --------------------------------------------------------|
D --7----------10---------0--0--0--0--0-3-----------------| x8
A --5----------8----------0--0--0--0--0-3-----------------|
D --5----------8----------0--0--0--0--0-3-----------------|


        Pause here, then play this:

    
E --------------------------------------------------------\
B -------------------------------------------------------- \
G --------------------------------------------------------  \
D --------8\---------8\-----------------------------------   \
A --------8\---------8\--------7-10-----------------------    \
D --0-0-0-8\---0-0-0-8\---0-8-----------------------------     \
    P P P      P P P                                  Play above bar twice followed
                                                      by below bar twice. Repeat  
                                                      as many times as needed
E --------------------------------------------------------     /
B --------------------------------------------------------    /
G --------------------------------------------------------   /
D --------10\---------10\---------------------------------  /
A --------10\---------10\--------9-12--------------------- /
D --0-0-0-10\---0-0-0-10\---0-10--------------------------/
    P P P       P P P 


E --------------------------------------------------------|
B --------------------------------------------------------|
G --------------------------------------------------------|
D --0--0--0--0--0-0-0-0--0--0--0--0--0-0-0-0--------------|
A --0--0--0--0--0-0-0-0--0--0--0--0--0-0-0-0--------------|
D --0--0--0--0--0-0-0-0--0--0--0--0--0-0-0-0--------------|
Добавлено: 18.06.2013
Другие материалы по этой песне:
  • Аккорды и текст

Страница создана 18.06.2013
http://primanota.ru/misc-unsigned-bands/absolace-chroma-mera-chords.htm
Привет, Гость.
Предлагаем пройти революционный курс по гитаре.
Подарок от PrimaNota.Ru, забирай!