PrimaNota.ru - самый крупный в мире бесплатный архив песенных текстов, аккордов, табулатур и нот


Misc Unsigned Bands - A Well Thought Tragedy - Closed And Locked - таба, видео

Регистрация Запомнить меня
Войти через:  Facebook Google Twitter Vk Yandex Mail.ru

Misc Unsigned Bands - A Well Thought Tragedy - Closed And Locked - таба, видео

Печатать
Просмотров: 112
Уроки эстрадного вокала в Санкт-Петербурге
Intro
|--------------------------------|
|--------------------------------|
|---10---10---10---10-9-3--------|
|---x----x----x----x--x-x--------|
|---8----8----8----8--7-5--------|
|--------------------------------|

|--------------------------------|
|--------------------------------|
|---14---14---14---14-12-10------|
|---x----x----x----x--x--x-------|
|---12---12---12---12-10-8-------|
|--------------------------------|
Chorus 1 (x2)
|--------------------------------------------------------|
|--------------------------------------------------------|
|--------------------------------------------------------|
|--------------------------------------------------------|
|----8-7-5------0h5-7h8p7~----5-----7----7-8-10-8-7~-----|
|--00-0-0-0-0-0-------------00-0--55-5-77----------------|
   ** * * * * *             ** *  ** * **
Chorus 2 (x2)
|--------------------------------------------------------|
|--------------------------------------------------------|
|--------------------------------------------------------|
|--------------------------------------------------------|
|----8-7-5-----0h5-7h8p7~------8-7-5-10-8-7-8------------|
|--00-0-0-0-0-0--------------00-0-0-0--0-0-0-0-----------|
   ** * * * * *              ** * * *  * * * *
Chorus 1 (x2)
|--------------------------------------------------------|
|--------------------------------------------------------|
|--------------------------------------------------------|
|--------------------------------------------------------|
|----8-7-5------0h5-7h8p7~----5-----7----7-8-10-8-7~-----|
|--00-0-0-0-0-0-------------00-0--55-5-77----------------|
   ** * * * * *             ** *  ** * **
Breakdown 1 (x2 except first 3 power chords)
|------------|------------------------------------------------|
|------------|------------------------------------------------|
|------------|------------------------------------------------|
|-8~---7--5--|------------------------------------------------|
|-8~---7--5--|--0-0-0-0---0--0-0-0-0--0-0-0-0--0-0-0-0--0-0-0-|
|-8~---7--5--|--0-0-0-0---0--0-0-0-0--0-0-0-0--0-0-0-0--0-0-0-|
                * * * *   *  * * * *  * * * *  * * * *  * * *
|--------------------------|
|--------------------------|
|--10--------10-9-7--------|
|--x---------x--x-x--------|
|--8--0-0-0--8--7-5--------|
|-----0-0-0----------------|
      * * *
|------------------------------------------------|
|------------------------------------------------|
|------------------------------------------------|
|------------------------------------------------|
|--0-0-0-0---0--0-0-0-0--0-0-0-0--0-0-0-0--0-0-0-|
|--0-0-0-0---0--0-0-0-0--0-0-0-0--0-0-0-0--0-0-0-|
   * * * *   *  * * * *  * * * *  * * * *  * * *
|--------------------|
|--------------------|
|--------------------|
|--------------------|
|-8--0-0-0--8-7-5----|
|-8--0-0-0--8-7-5----|
     * * *
Mini Solo (x2)
|----------------------------------------------------|
|--10-11-10-11-14-11-10-11---------------------------|
|-------------------------14-12-14-12-10-12-9-10-----|
|----------------------------------------------------|
|----------------------------------------------------|
|----------------------------------------------------|

|-------------------------10-----------------------|
|--10-11-10-11-14-11-10-11--14-11-10-11-10--10-----|
|-----------------------------------------12-------|
|--------------------------------------------------|
|--------------------------------------------------|
|--------------------------------------------------|

|----------------------------------------------------|
|--10-11-10-11-14-11-10-11---------------------------|
|-------------------------14-12-14-12-10-12-9-10-----|
|-----------------------------------------------12~--|
|----------------------------------------------------|
|----------------------------------------------------|

Chorus 1 (x2)
|--------------------------------------------------------|
|--------------------------------------------------------|
|--------------------------------------------------------|
|--------------------------------------------------------|
|----8-7-5------0h5-7h8p7~----5-----7----7-8-10-8-7~-----|
|--00-0-0-0-0-0-------------00-0--55-5-77----------------|
   ** * * * * *             ** *  ** * **
Chorus 2 (x2)
|--------------------------------------------------------|
|--------------------------------------------------------|
|--------------------------------------------------------|
|--------------------------------------------------------|
|----8-7-5-----0h5-7h8p7~------8-7-5-10-8-7-8------------|
|--00-0-0-0-0-0--------------00-0-0-0--0-0-0-0-----------|
   ** * * * * *              ** * * *  * * * *
Breakdown 2 part 1
|-------------------------------------------|
|------------11----------------11-----------|
|------------14----------------14-----------|
|-------------------------------------------|
|---00000000----000---00000000----0-0-------|
|---00000000----000---00000000----0-0-------|
    ********    ***   ********    * *
Breakdown 2 part 2 (x2)
|-----------------------------------|
|------------11-----11-----11-------|
|------------14-----14-----14-------|
|-----------------------------------|
|---00000000----000----0-0----0-0---|
|---00000000----000----0-0----0-0---|
    ********    ***    * *    * *
|-----------------------------|
|------------11---------------|
|------------14---------------|
|-----------------------------|
|---00000000----0-0---0000----|
|---00000000----0-0---0000----|
    ********    * *   ****
Breakdown 3 Part 1 (x1)
|------10----10----10----10----10----10----10----10---|
|---14----14----14----14----14----14----14----14------|
|-----------------------------------------------------|
|-----------------------------------------------------|
|-----------------------------------------------------|
|-----------------------------------------------------|
Breakdown 3 part 2 (x2)
|--------------------------------------|
|--------------------------------------|
|--------------------------------------|
|--------------------------------------|
|--000000000~-000~-0~0~-0~0~-----------|
|--000000000~-000~-0~0~-0~0~-----------|
   *********  ***  * *  * *
|--------------------------------------|
|--------------------------------------|
|--------------------------------------|
|--------------------------------------|
|--000000000~-0~0~00000~---------------|
|--000000000~-0~0~00000~---------------|
   *********  * * *****
Breakdown 3 Part 3  (x4)
|------10----10----10----10----10----10----10----10---|
|---14----14----14----14----14----14----14----14------|
|-----------------------------------------------------|
|-----------------------------------------------------|
|-----------------------------------------------------|
|-----------------------------------------------------|
Mini Solo (x3)
|----------------------------------------------------|
|--10-11-10-11-14-11-10-11---------------------------|
|-------------------------14-12-14-12-10-12-9-10-----|
|----------------------------------------------------|
|----------------------------------------------------|
|----------------------------------------------------|\
                                                      (palm muted first time)
|-------------------------10---------------------|    /
|--10-11-10-11-14-11-10-11--14-11-10-11-10--10---|   /
|-----------------------------------------12-----|  /
|------------------------------------------------|
|------------------------------------------------|
|------------------------------------------------|

|----------------------------------------------------|
|--10-11-10-11-14-11-10-11---------------------------|
|-------------------------14-12-14-12-10-12-9-10-----|
|-----------------------------------------------12~--|
|----------------------------------------------------|
|----------------------------------------------------|


Breakdown 4 (x1)
|---------------------------------|
|---------------------------------|
|---------------------------------|
|---------------------------------|
|--0--0--0--0--00000--------------|
|--0--0--0--0--00000--------------|

Breakdown 5 (2x)
|---------------------------------|
|---------------------------------|
|---------------------------------|
|---------------------------------|
|--0~-0~-0~-0~-00000~-------------|
|--0~-0~-0~-0~-00000~-------------|
   *  *  *  *  *****
Outro
|---------------------------------------------------------|
|--12-----12-----12------12-------------------------------|
|--14-----14-----14------14-------------------------------|
|---------------------------------------------------------|
|-----0-0----0-0-----0-0----0-0---00000-------------------|
|-----0-0----0-0-----0-0----0-0---00000-------------------|
      * *    * *     * *    * *   *****
|---------------------------------|
|---------------------------------|
|---------------------------------|
|---------------------------------|
|--0--0--0--0--00000---0----------|
|--0--0--0--0--00000---0----------|
   *  *  *  *  *****   *



Legend:
*   palm mute
b   bend
h   hammer-on
p   pull-off
x   mute
~   let ring
Добавлено: 24.09.2013
Другие материалы по этой песне:
  • Аккорды и текст

Страница создана 24.09.2013
http://primanota.ru/misc-unsigned-bands/a-well-thought-tragedy-closed-and-locked-chords.htm
Привет, Гость.
Предлагаем пройти революционный курс по гитаре.
Подарок от PrimaNota.Ru, забирай!