PrimaNota.ru - самый крупный в мире бесплатный архив песенных текстов, аккордов, табулатур и нот


Misc Traditional - When Mums Not Home - таба, видео

Регистрация Запомнить меня
Войти через:  Facebook Google Twitter Vk Yandex Mail.ru

Misc Traditional - When Mums Not Home - таба, видео

Печатать
Просмотров: 147
-------------------------------------------------------------------------------
                             When Mum's Not Home
-------------------------------------------------------------------------------
Tabbed by:@gjenny5
E-mail:

Tuning:eBGDAE


e|---------------------------------------------------------------------------|
B|---------------------------------------------------------------------------|
G|--------7--7--7--7--7--------6--6------------------------------------------|
D|-----7-----------------7--8--------8--7------------------------------------|
A|--5------------------------------------------------------------------------|
E|---------------------------------------------------------------------------|

e|---------------------------------------------------------------------------|
B|---------------------------------------------------------------------------|
G|--------7--7--7--7--7------------------------------------------------------|
D|-----7----------------7--8--7----------------------------------------------|
A|--5----------------------------8--7--5-------------------------------------|
E|---------------------------------------------------------------------------|

If you choose to play the oven door, please ensure the oven is off and cool before use.


************************************

| /   slide up
| \   slide down
| h   hammer-on
| p   pull-off
| ~   vibrato
| +   harmonic
| x   Mute note
| b   Bend
| pb  Pre-bend
| br  Bend release
| pbr Pre-bend release
| brb Bend release bend

************************************
Добавлено: 19.07.2015
Другие материалы по этой песне:
  • Аккорды и текст

Страница создана 19.07.2015
http://primanota.ru/misc-traditional/when-mums-not-home-chords.htm
Привет, Гость.
Предлагаем пройти революционный курс по гитаре.
Подарок от PrimaNota.Ru, забирай!