PrimaNota.ru - самый крупный в мире бесплатный архив песенных текстов, аккордов, табулатур и нот


Misc Traditional - Msu Shadows - Alma Mater - таба

Регистрация Запомнить меня
Войти через:  Facebook Google Twitter Vk Yandex Mail.ru

Misc Traditional - Msu Shadows - Alma Mater - таба

Печатать
Просмотров: 59
I did not incorporate the timing of the song, but if should be easy to pick up because I matched the 
lyrics with the strings you need to hit.



e|-------------------------------------------------------------|
B|----------------2---0----------------------------------------|
G|-----------2------------2-----------------1----2--4---2------|
D|-2--2--2--------------------2---2----4-----------------------|
A|-------------------------------------------------------------|
E|-------------------------------------------------------------|
   M  S  U   We love thy shadows, when twilight silent falls

e|-------------------------------------------------------------|
B|------------------------2------------------------------------|
G|-2---2---2----2-- 4--2----------------1---2------4-----------|
D|----------------------------2----2---4-------4---------------|
A|-------------------------------------------------------------|
E|-------------------------------------------------------------|
 flushing deep and softly paling, o'er ivy covered halls 

e|-------------------------------------------------------------|
B|-----------2-----0-------------------------------------------|
G|--------2---------------2-------------1---2----4----2--------|
D|-2--2----------------------2--2--4---------------------------|
A|-------------------------------------------------------------|
E|-------------------------------------------------------------|
 beneath the pines we'll gather to give our faith so true

e|-------------------------------------------------------------|
B|------------------------2------------------------------------|
G|--2---2----2---2---4-2------------------1--2--4--2--2--------|
D|---------------------------2--1---2---4----------------------|
A|-------------------------------------------------------------|
E|-------------------------------------------------------------|
   sing our love for alma mater and thy praises M  S  U
Добавлено: 20.06.2015
Другие материалы по этой песне:
  • Аккорды и текст

Страница создана 20.06.2015
http://primanota.ru/misc-traditional/msu-shadows-alma-mater-chords.htm
Привет, Гость.
Предлагаем пройти революционный курс по гитаре.
Подарок от PrimaNota.Ru, забирай!